» » »

Ween, I Fell In Love Today Bass tabs (ver.1)

Artists:  A B C D E F G H I J K L M N O P Q R S T U V W X Y Z # 

I Fell In Love Today Bass tabs (ver.1)

Ween Tabs
 Rating:
4/5 (4 votes)
I Fell In Love Today lessons Tabs too difficult? Try these video lessons and learn fast
                WEEN
I FELL IN LOVE TODAY
SHINOLA VOL. 1 (Track 3)

INTRO/VERSE
G------------------------------------------|
D-------------7-6----6-----------7---------|
A------7--9-------(9)--(9)-9-7-9-----------|
E--7*-7------7-----------------------------|
*First "B" only on First Bar.

CHORUS
G--------------------------------------------------|
D--------------------------------------------------|
A--9-9-9-9-9-9-9-9-7-7-7-7-7-7-7-\-5-5-5-5-7-7-7-7-|
E--------------------------------------------------|
Chorus is Always x1


-Song Ends on a single 8th note "B"
-Towards the End, The Bassist begins improvising using a the same notes

Enjoy!
            
Submit corrections

comments powered by Disqus
↑ Back to top | Ween Bass for I Fell In Love Today. Lyrics for acoustic guitar and electric guitar. Tablatures and chords are parodies/interpretations of the original songs. You may use it for private study, scholarship, research or language learning purposes only