» » »

Ween, I Don't Want It Tabs (ver.2)

Artists:  A B C D E F G H I J K L M N O P Q R S T U V W X Y Z # 

I Don't Want It Tabs (ver.2)

Ween Tabs
 Rating:
4/5 (4 votes)
I Don't Want It lessons Tabs too difficult? Try these video lessons and learn fast
                This is how to play the song without a capo.

intro riff thing...
e--8-8-8---3-3----3-3-3-3-3-3---4-4--|
B--9-9-9---4-4----4-4-4-1-1-1---4-4--|
G--8-8-8---3-3----3-3-3-1-1-1---x-x--|
D-------------------------------3-3--|
A-------------------------------4-4--|
E------------------------------------|


Chords in verse (Listen to song for strum patterns)...
e--4-----------|
B--4---6---8---|
G--5---6---8---|
D--6---6---8---|
A--6---4---6---|
E--4-----------|


Chords in chorus (Repeat twice)...
e------4-----------|
B--8---4---4---8---|
G--8---5---6---8---|
D--8---6---6---8---|
A--6---6---4---6---|
E------4-----------|

"I understand it..."
e-----|
B--9--|
G--8--|
D--6--|
A-----|
E-----|


Solo...
e-----------------------------------------------------------|
B--9----9-------------------------8-9---9----9--------------|
G----10---10-8~~---8-8-8-8/10--10---------10---10\8---------|
D-----------------------------------------------------10\8--|
A-----------------------------------------------------------|
E-----------------------------------------------------------|

e-----------------------------------------------------------------|
B--9----9--------------------------8-9---9----9-9/11~~--11-11-11--|
G----10---10-8~~----8-8-8-8/10--10---------10---------------------|
D-----------------------------------------------------------------|
A-----------------------------------------------------------------|
E-----------------------------------------------------------------|

e--16-16-16-16-----------------------------------------------------|
B---------------17b18r17~~---17/18--15-17-15~~--15-13-15b16r15-13--|
G------------------------------------------------------------------|
D------------------------------------------------------------------|
A------------------------------------------------------------------|
E------------------------------------------------------------------|

e--16-------------------------------------------------------------|
B---------------------------------------------------16/18--16-----|
G------17-17b18r17--15-17-15----17-17-17/18--18/20------------18--|
D-----------------------------------------------------------------|
A-----------------------------------------------------------------|
E-----------------------------------------------------------------|

e-------------------------------------------16-----|
B--------------------------------------------------|
G--17-18-17-15-17-15-13-15-13-12-13~~--------------|
D--------------------------------------------------|
A--------------------------------------------------|
E--------------------------------------------------|
            
Submit corrections

comments powered by Disqus
↑ Back to top | Ween Tabs for I Don't Want It. Lyrics for acoustic guitar and electric guitar. Tablatures and chords are parodies/interpretations of the original songs. You may use it for private study, scholarship, research or language learning purposes only