» » »

Ween, Happy Colored Marbles Tabs (ver.1)

Artists:  A B C D E F G H I J K L M N O P Q R S T U V W X Y Z # 

Happy Colored Marbles Tabs (ver.1)

Ween Tabs
Rating:
0/5 (0 votes)
Happy Colored Marbles lessons Tabs too difficult? Try these video lessons and learn fast
                -------------------------------------------------------------------------------
-------------------------------------------------------------------------------

Tuning: Drop D

Verses (this is the part that the xylophone or whatever it is plays)
e|---11----------10--------------------------10--------------10--------------|
B|-11----11-------------12------12---------------10------10------10----------|
G|-----------12-------------12-------x3 then---------10--------------10------|
D|---------------------------------------------------------------------------|
A|---------------------------------------------------------------------------|
E|---------------------------------------------------------------------------|

The ominous sounding guitar or synthesizer that comes in during the second
verse plays this
e|---------------------------------------------------------------------------|
B|---------------------------------------------------------------------------|
G|---------------------------------------------------------------------------|
D|---------------------------------------------------------------------------|
A|---------------------------------------------------------------------------|
E|-5-----------------5----------------0--------------------------------------|

Choruses
e|-8-----7-----8------8-----7------------------------------------------------|
B|-8-x8--8-x8--10-x8--8-x4--8-x4---------------------------------------------|
G|-9-----7-----10-----9-----7------------------------------------------------|
D|---------------------------------------------------------------------------|
A|---------------------------------------------------------------------------|
E|---------------------------------------------------------------------------|

It's hard to hear what the hell is going on after the second chorus, but I
know a synthesizer plays this
e|---------------------------------------------------------------------------|
B|---------------------------------------------------------------------------|
G|-6----7----------6-----7---------6-----7-----------------------------------|
D|---------------------------------------------9----7------------------------|
A|---------------------------------------------------------------------------|
E|---------------------------------------------------------------------------|

Then at the very end it goes
e|---------------------------------------------------------------------------|
B|---------------------------------------------------------------------------|
G|---------------------------------------------------------------------------|
D|-5---7---5-----------------------------------------------------------------|
A|---------------------------------------------------------------------------|
E|---------------------------------------------------------------------------|
            
Submit corrections

comments powered by Disqus
↑ Back to top | Ween Tabs for Happy Colored Marbles. Lyrics for acoustic guitar and electric guitar. Tablatures and chords are parodies/interpretations of the original songs. You may use it for private study, scholarship, research or language learning purposes only