» » »

Ween, Don't Laugh (I Love You) Bass tabs (ver.1)

Artists:  A B C D E F G H I J K L M N O P Q R S T U V W X Y Z # 

Don't Laugh (I Love You) Bass tabs (ver.1)

Ween Tabs
Rating:
0/5 (0 votes)
Hard to play? Try these video lessons and learn fast.
                                                             (D) And when the sun it..
       (A)
G----------------------------------------------------------------4---4------------------4--2--|
D------------0--0--4--5--7--4--0--0--0--4--5--7--5--4--------------2---2----------------------|
A--0--2--4--------------------------------------------------0-0-------------4--0--0-----------|
E---------------------------------------------------------------------------------------------|

                    (G)
G----------------0---0--0--0--4--0--4--5-5-5-5--4--5--7-----12---12---12--11----12-12-12-12--10--------|
D--4--2------------------------------------------------------------------------------------------12-10-|
A---------4--------------------------------------------------------------------------------------------|
E------------------------------------------------------------------------------------------------------|

                                     (C) Ernest                     (G) Hemmingway...
(D)

G---------------------------------------------------------------------------------------|
D---------------------------------------------------------0-0-4-5-7-5-4--0-0-4-5-7-5-4--|
A----3-3-3-3-3-3-3-3--------------------------------------------------------------------|
E----------------------------3-3-3-3-3-3-3-3--------------------------------------------|
            

comments powered by Disqus
↑ Back to top | Ween Bass for Don't Laugh (I Love You). Lyrics for acoustic guitar and electric guitar. Tablatures and chords are parodies/interpretations of the original songs. You may use it for private study, scholarship, research or language learning purposes only