» » »

Cover It With Gas And Set It On Fire Tabs (ver.1)

Artists:  A B C D E F G H I J K L M N O P Q R S T U V W X Y Z # 

Cover It With Gas And Set It On Fire Tabs (ver.1)

Ween
Rating:
0/5 (0 votes)

Hard to play? Try these video lessons and learn fast.
                -----------------------------------------------------------------
-----------------------------------------------------------------

Tuning: EADGBe


This is the rythm part that plays through the whole song 
(except for the solo):
e|-----xx---------xxxx-------------------------------------------|
B|-----xx-5-------xxxx-5-55----5---------------------------------|
G|-7-77xx-5-5-55--xxxx-5-55-55-5-7-77----------------------------|
D|-7-77xx---5-55--xxxx------55---7-77----------------------------|
A|-----xx-3-------xxxx-3-33----3---------------------------------|
E|-5-55xx---3-33--xxxx------33---5-55----------------------------|

This is the riff that is played along with when Dean goes, 
"Cover it with gas and set it on fire!" (the notes match the words)
e|---------------------5-5---------------------------------------|
B|-5-8-8-5-8-8-8-5-----------------------------------------------|
G|----------------7-5--------------------------------------------|
D|---------------------------------------------------------------|
A|---------------------------------------------------------------|
E|---------------------------------------------------------------|

 And That's all I've figured out. I don't know the solo but I do know
that it is on the same scale as the riff. Listen to the song and I am 
sure you'll figure out just as I probably will.

By the way, the scale I am talking about is A:

e|-------------------------5--8------------------------------------|
B|--------------------5--8-----------------------------------------|
G|----------------5--7---------------------------------------------|
D|------------5--7-------------------------------------------------|
A|----3--5--7------------------------------------------------------|
E|--5--------------------------------------------------------------|

 Enjoy!
            
Hard to play? Try these video lessons and learn fast. | Correct




comments powered by Disqus
↑ Back to top | Tablatures and chords are parodies/interpretations of the original songs. You may use it for private study, scholarship, research or language learning purposes only