» » »

Ween, Buenos Tardes Tabs (ver.1)

Artists:  A B C D E F G H I J K L M N O P Q R S T U V W X Y Z # 

Buenos Tardes Tabs (ver.1)

Ween Tabs
Rating:
5/5 (6 votes)
Buenos Tardes lessons Tabs too difficult? Try these video lessons and learn fast
                Buenas Tardes Amigo
Ween
Chocolate and Cheese
Standard Tuning

All verses share the same chord pattern 

(Just acoustic)

Am      G       Am
Buenas tardes amigo
      G         Am
Hola, my good friend
         G          Dm 
Cinco de Mayo's on Tuesday
       Am         G              Am
And I hoped we'd see each other again

(Bass enters...)

You killed my brother last winter
You shot him three times in the back
In the night I still hear mama weeping
Oh mama, still dresses in black

I looked at every fiesta
For you I wanted to greet
Maybe I'd sell you a chicken
With poison interlaced with the meat

You... you look like my brother
Mama loved him the best
He was head honcho with the ladies
Mama always said he was blessed

(Keyboard enters...)

The village all gathered around him
They couldn't believe what they saw
I said it was you that had killed him
And that I'd find you and upstand the law

The people of the village believed me
Mama... she wanted revenge
I told her I'd see that she was honored
I'd find you and put you to death

Solo
   Am       G           Am       
E|--------------------|--------------------|
B|--------------------|--------------------|
G|--------------------|--------------------|
D|--------------------|--------------------|
A|-3-2-0----2-0-----2-|-0------------------|
E|--------------3-----|--------------------|

   Am       G           Am       
E|--------------------|--------------------|
B|--------------------|--------------------|
G|--------------------|--------------------|
D|--------------------|--------------------|
A|-3-2-0----2-0-----2-|-0------------------|
E|--------------3-----|--------------------|

   Am       G           Dm  
E|--------------------|--------------------|
B|--------------------|--------------------|
G|--4b5---5-7---------|-9----b10b9---------|
D|--------------------|--------------------|
A|--------------------|--------------------|
E|--------------------|--------------------|

   Am       G           Am
E|--------------------|--------------------|
B|-13-12-10`--8—10b12-|-10-----------------|
G|--------------------|--------------------|
D|--------------------|--------------------|
A|--------------------|--------------------|
E|--------------------|--------------------|

   Am       G           Am       
E|--------------------|--------------------|
B|--------------------|--------------------|
G|--------------------|--------------------|
D|--------------------|--------------------|
A|-3-2-0----2-0-----2-|-0------------------|
E|--------------3-----|--------------------|

   Am       G           Am       
E|--------------------|--------------------|
B|--------------------|--------------------|
G|--------------------|--------------------|
D|--------------------|--------------------|
A|-3-2-0----2-0-----2-|-0------------------|
E|--------------3-----|--------------------|

   Am       G           Dm  
E|---7----8-10--------|-12-----------------|
B|--------------------|--------------------|
G|--4b5---5-7---------|-9------------------|
D|--------------------|--------------------|
A|--------------------|--------------------|
E|--------------------|--------------------|

   Am       G           Am
E|-20-19-17--15-17b19-|-17-----------------|
B|-------------—------|--------------------|
G|-17-16-14--12-14b16-|-14-----------------|
D|--------------------|--------------------|
A|--------------------|--------------------|
E|--------------------|--------------------|

(Keyboards exit...)

So now... now that I've found you
On this such a joyous day
I tell you it was me who killed him
But the truth I'll never have to say

(Bass exit...)

Buenas tardes amigo
Hola, my good friend
Cinco de Mayo's on Tuesday
And I hoped we'd see each other again...

   Am  G   Dm                
E|-0---3---1--------|
B|-1--(3)--3--------|
G|-2---0---2--------|
D|-2---0---0--------|
A|-0---2------------|
E|-----3------------|

Awesome song!
            

comments powered by Disqus
↑ Back to top | Ween Tabs for Buenos Tardes. Lyrics for acoustic guitar and electric guitar. Tablatures and chords are parodies/interpretations of the original songs. You may use it for private study, scholarship, research or language learning purposes only