» » »

Weebls Stuff, Shut Up Woman Get On My Horse Tabs (ver.2)

Artists:  A B C D E F G H I J K L M N O P Q R S T U V W X Y Z # 

Shut Up Woman Get On My Horse Tabs (ver.2)

Weebls Stuff Tabs
Rating:
3/5 (2 votes)
Shut Up Woman Get On My Horse lessons Tabs too difficult? Try these video lessons and learn fast
                Shut Up Woman, Get On My Horse (D tuning)
        - for standard tuning, play two frets down for every note

Guitar 1: Lead (Man's Voice)
Guitar 2: Lead (Woman's Voice/Horse)
Guitar 3: Rhythm (Background)

Key:

Guitar 1:
  "Look at my horse, my horse is amazing. Give it a lick..."
|--------------------------------------------|
|--------------------------------------------|
|----1-1-3--1--1-1-1-3-3-1--4-4-6-4----------|
|--------------------------------------------|
|--------------------------------------------|
|--------------------------------------------|

Guitar 2:
"mmmm, tastes just like raisins"
|--19b(21)-r19--------17------------|
|---------------17-19-----19--17~---|
|-----------------------------------|
|-----------------------------------|
|-----------------------------------|
|-----------------------------------|

Guitar 1:
"At the stroke of its maine, it turns into a plane, 
and it turns back again, when you tug on its WINKEH..."
|----------------------------------------------------------------------|
|----------------------------------------------------------------------|
|---1-1-3-3--1-------1-1-3-3--1-------1-1-3-3--1------/8--8-8--6-------|
|---------------1----------------1-----------------1--------------6----|
|----------------------------------------------------------------------|
|----------------------------------------------------------------------|

Guitar 2:
"ooo, thats dir-ty!"
|--20b(21)--20b(21)--20b(21)--20b(21)-|
|-------------------------------------|
|-------------------------------------|
|-------------------------------------|
|-------------------------------------|
|-------------------------------------|

Guitar 1:
"Do ya think so? Do ya think so? 
Well i better not show you where the lemonade is made..."
|-----------------------------------------|
|-----------------------------------------|
|--1-3-3--1--4-4-4-6-4----4--4-4-4-3-1-3--|
|----------------------6------------------|
|-----------------------------------------|
|-----------------------------------------|

"sweet lemonade, mmmm sweet lemonade, m sweet lemonade, yeah sweet lemonade."
|-------------------------------------------------------------------------------------------|
|-------------------------------------------------------------------------------------------|
|-4-4-4-4-3-1-3-4--4-4-4-3-1--/6--8--4-3-1--/6--8--4-3-1--4--4-3-1-/6--8--4--3--1-----------|
|-------------------------------------------------------------------------------------------|
|-------------------------------------------------------------------------------------------|
|-------------------------------------------------------------------------------------------|

Guitar 2:
SOLO (x2) - plays through the next line too :D
|--19--19-18-----------19--19-18---------------------------------------------------|
|--------------19-19-19----------19-19-19--16-16-16--19-19-19--14-14-14--16-16-16--|
|----------------------------------------------------------------------------------|
|----------------------------------------------------------------------------------|
|----------------------------------------------------------------------------------|
|----------------------------------------------------------------------------------|


Guitar 1:
"Get on my horse, i'll take you round the universe, and all the other places too..."
|----------------------------------------------------------|
|----------------------------------------------------------|
|--8-6-4-/8--8-8-6-4-6-/8--/11--\8--8-8--6-8-6-8--/11--\8--|
|----------------------------------------------------------|
|----------------------------------------------------------|
|----------------------------------------------------------|

"Guitar 2:
"Think you'll find that the universe pretty much covers everything..."
|--11-13-14--11-13-14--11------11-13-14---11-13-14-13-11--|
|--------------------------16-----------------------------|
|---------------------------------------------------------|
|---------------------------------------------------------|
|---------------------------------------------------------|
|---------------------------------------------------------|

Guitar 1:
"Shut up woman, get on my horse!"
|----------------------------|
|----------------------------|
|--6-6-6-8-6-4---------------|
|--------------8-6~----------|
|----------------------------|
|----------------------------|

Guitar 3:
repeat during the whole song - listen to the song to get the timings.
|------------------------------------------------------|
|------------------------------------------------------|
|---------------------------8888-----------------------|
|-2222222222222222-55555555-8888-4444-2222222222222222-|
|-2222222222222222-55555555-6666-4444-2222222222222222-|
|-4444444444444444-77777777------2222-4444444444444444-|

end part only.
|------------------------------------------------|
|------------------------------------------------|
|-88888888---------------------------------------|
|-88888888-9999-4444-------------4~--------------|
|-66666666-9999-4444-------------4~--------------|
|----------7777-2222-------------2~--------------|

Enjoy! :D
            
Submit corrections

comments powered by Disqus
↑ Back to top | Weebls Stuff Tabs for Shut Up Woman Get On My Horse. Lyrics for acoustic guitar and electric guitar. Tablatures and chords are parodies/interpretations of the original songs. You may use it for private study, scholarship, research or language learning purposes only