>
 >
Transylvania 90210

Transylvania 90210 Guitar Tabs

Wednesday 13 - Transylvania 90210 chords, tabs, tablatures, lyrics

Guitar lessons | Add/correct | Request | Top 50 tabs Artists:  A B C D E F G H I J K L M N O P Q R S T U V W X Y Z 0-9

Transylvania 90210 Guitar Tabs – Wednesday 13

CD, Sheet music, Poster

Do you like Transylvania 90210? Share with your friends now
Bass TabsBass Tabs v2Tabs

TRANSYLVANIA 90210
As recorded by Wednesday 13
(From the 2005 Album Transylvania 90210: Songs of Death, Dying, and the Dead)

        

Words and Music by Wednesday 13

Gtr I (E A D G B E) - 'Clean Guitar'
Gtr II (E A D G B E) - 'Distortion Guitar 1'
Gtr III (E A D G B E) - 'Distortion Guitar 2'
Gtr IV (E A D G B E) - 'Synth'
Gtr V (E A D G B E) - 'Solo Guitar'

 Intro
  Q=130
  E5    D5                           E5    D5
 4/4
  Gtr I
  E E E Q  E E E   E E E E E E E E   E E E Q  E E E   E E E E E E E E
|----------------|-----------------|----------------|------------------|
|----------------|-----------------|----------------|------------------|
|-----9------7---|-----7-------7---|-----9------7---|-----7-------7----|
|---9------7---7-|---7---7---7---7-|---9------7---7-|---7---7---7---7--|
|-7-----5--------|-5-------5-------|-7-----5--------|-5-------5--------|
|----------------|-----------------|----------------|------------------|


  E5    B5                           E5    D5
  E E E Q  E E E   E E E E E E E E   E E E Q  E E E   E E E E E E E E
|----------------|-----------------|----------------|-----------------|
|----------------|-----------------|----------------|-----------------|
|-----9------4---|-----4-------4---|-----9------7---|-----7-------7---|
|---9------4---4-|---4---4---4---4-|---9------7---7-|---7---7---7---7-|
|-7-----2--------|-2-------2-------|-7-----5--------|-5-------5-------|
|----------------|-----------------|----------------|-----------------|


 Verse
  E5    D5                           E5    D5
  E E E Q  E E E   E E E E E E E E   E E E Q  E E E   E E E E E E E E
|----------------|-----------------|----------------|-----------------|
|----------------|-----------------|----------------|-----------------|
|-----9------7---|-----7-------7---|-----9------7---|-----7-------7---|
|---9------7---7-|---7---7---7---7-|---9------7---7-|---7---7---7---7-|
|-7-----5--------|-5-------5-------|-7-----5--------|-5-------5-------|
|----------------|-----------------|----------------|-----------------|


  E5    B5                           E5    D5
  E E E Q  E E E   E E E E E E E E   E E E Q  E E E   E E E E E E E E
|----------------|-----------------|----------------|-----------------|
|----------------|-----------------|----------------|-----------------|
|-----9------4---|-----4-------4---|-----9------7---|-----7-------7---|
|---9------4---4-|---4---4---4---4-|---9------7---7-|---7---7---7---7-|
|-7-----2--------|-2-------2-------|-7-----5--------|-5-------5-------|
|----------------|-----------------|----------------|-----------------|


  $
  E5      D5
  Gtr I
   E  E E Q  E E  E     E  E E E E E E E
|--------------------|-------------------|
|--------------------|-------------------|
|-------9------7-----|-------7-------7---|
|-----9------7----7--|-----7---7---7---7-|
|--7------5----------|--5--------5-------|
|--------------------|-------------------|
|
| Gtrs II, III
|  Q.     H      +E    +W
|--------------------|-------------------|
|--------------------|-------------------|
|--------------------|-------------------|
|-/2------0------(0)-|-(0)---------------|
|-/2------0------(0)-|-(0)---------------|
|--------------------|-------------------|


  E5      D5
   E  E E Q  E E  E     E  E E E E E E E
|--------------------|-------------------|
|--------------------|-------------------|
|-------9------7-----|-------7-------7---|
|-----9------7----7--|-----7---7---7---7-|
|--7------5----------|--5--------5-------|
|--------------------|-------------------|
|
|  Q.     H      +E    +W
|--------------------|-------------------|
|--------------------|-------------------|
|--------------------|-------------------|
|-/2------0------(0)-|-(0)---------------|
|-/2------0------(0)-|-(0)---------------|
|--------------------|-------------------|


  E5      B5
   E  E E Q  E E  E     E  E E E E E E E
|--------------------|-------------------|
|--------------------|-------------------|
|-------9------4-----|-------4-------4---|
|-----9------4----4--|-----4---4---4---4-|
|--7------2----------|--2--------2-------|
|--------------------|-------------------|
|
|  Q.     H      +E    +W
|--------------------|-------------------|
|--------------------|-------------------|
|--------------------|-------------------|
|-/2-----------------|-------------------|
|-/2------2------(2)-|-(2)---------------|
|---------2------(2)-|-(2)---------------|


  E5      D5
   E  E E Q  E E  E     E  E E E E E E E
|--------------------|-------------------|
|--------------------|-------------------|
|-------9------7-----|-------7-------7---|
|-----9------7----7--|-----7---7---7---7-|
|--7------5----------|--5--------5-------|
|--------------------|-------------------|
|
|  Q.     H      +E    +W
|--------------------|-------------------|
|--------------------|-------------------|
|--------------------|-------------------|
|-/2------0------(0)-|-(0)---------------|
|-/2------0------(0)-|-(0)---------------|
|--------------------|-------------------|


   Chorus
    E5
    Gtr I
     E E E E E E E E     E  E E E E E E E
||-------------------|--------------------|
||o------------------|--------------------|
||-------9-------9---|--------9-------9---|
||-----9---9---9---9-|------9---9---9---9-|
||o--7-------7-------|---7--------7-------|
||-------------------|--------------------|
|
|   Gtrs II, III
|    W                  +W
||-------------------|--------------------|
||o------------------|--------------------|
||-------------------|--------------------|
||--/2---------------|--(2)---------------|
||o-/2---------------|--(2)---------------|
||-------------------|--------------------|
|
|   Gtr IV
|    ~~~~~~~~~~~~~~~~~~~~~~~~~~~~~~~~~~~~~~
|    W                  +W
||--24---------------|-(24)---------------|
||o------------------|--------------------|
||-------------------|--------------------|
||-------------------|--------------------|
||o------------------|--------------------|
||-------------------|--------------------|


  D5
   E E E E E E E E     E  E E E E E E E   3x
|------------------|----------------------||
|------------------|---------------------o||
|------7-------7---|--------7-------7-----||
|----7---7---7---7-|------7---7---7---7---||
|--5-------5-------|---5--------5--------o||
|------------------|----------------------||
|
|  W                  +W                  3x
|------------------|----------------------||
|------------------|---------------------o||
|------------------|----------------------||
|--0---------------|--(0)-----------------||
|--0---------------|--(0)----------------o||
|------------------|----------------------||
|
|~~~~~~~~~~~~~~~~~~~~~~~~~
|  W                  +W                  3x
|-22---------------|-(22)-----------------||
|------------------|---------------------o||
|------------------|----------------------||
|------------------|----------------------||
|------------------|---------------------o||
|------------------|----------------------||


                                         To Coda
                                         To Coda
  E5                 F5               G5          D5
                                                 2/4       4/4
   E E E E E E E E    E  E  E  E   E   E   E  E   E E E E    E  E E E E E E E
|------------------|----------------------------|---------|-------------------|
|------------------|----------------------------|---------|-------------------|
|------9-------9---|-------10-----10---------12-|-----7---|-------7-------7---|
|----9---9---9---9-|----10----10----------12----|---7---7-|-----7---7---7---7-|
|--7-------7-------|--8---------------10--------|-5-------|--5--------5-------|
|------------------|----------------------------|---------|-------------------|
|
|  W                  H           +E   Q.         H         +W
|------------------|----------------------------|---------|-------------------|
|------------------|----------------------------|---------|-------------------|
|------------------|----------------------------|---------|-------------------|
|-/2---------------|-/3-----------(3)-/5--------|-0-------|-(0)---------------|
|-/2---------------|-/3-----------(3)-/5--------|-0-------|-(0)---------------|
|------------------|----------------------------|---------|-------------------|
|
|  ~~~~~~~~~~~~~~~~~~~~~~~~~~~~~~~~~~~
|  W                  H           +E   Q.         H          W
|-24---------------|-25----------(25)-----------|---------|-------------------|
|------------------|----------------------------|---------|-------------------|
|------------------|----------------------------|---------|-------------------|
|------------------|----------------------------|---------|-------------------|
|------------------|----------------------------|---------|-------------------|
|------------------|----------------------------|---------|-------------------|


  E5      D5
  Gtr I
   E  E E Q  E E  E     E  E E E E E E E
|--------------------|-------------------|
|--------------------|-------------------|
|-------9------7-----|-------7-------7---|
|-----9------7----7--|-----7---7---7---7-|
|--7------5----------|--5--------5-------|
|--------------------|-------------------|
|
| Gtrs II, III
|  Q.     H      +E    +W
|--------------------|-------------------|
|--------------------|-------------------|
|--------------------|-------------------|
|-/2------0------(0)-|-(0)---------------|
|-/2------0------(0)-|-(0)---------------|
|--------------------|-------------------|


 Verse
  E5      D5
  Gtr I
   E  E E Q  E E  E     E  E E E E E E E
|--------------------|-------------------|
|--------------------|-------------------|
|-------9------7-----|-------7-------7---|
|-----9------7----7--|-----7---7---7---7-|
|--7------5----------|--5--------5-------|
|--------------------|-------------------|
|
| Gtrs II, III
|  Q.     H      +E    +W
|--------------------|-------------------|
|--------------------|-------------------|
|--------------------|-------------------|
|-/2------0------(0)-|-(0)---------------|
|-/2------0------(0)-|-(0)---------------|
|--------------------|-------------------|


                                   D.S.
  E5      D5
   E  E E Q  E E  E     E  E E E E E E E
|--------------------|-------------------|
|--------------------|-------------------|
|-------9------7-----|-------7-------7---|
|-----9------7----7--|-----7---7---7---7-|
|--7------5----------|--5--------5-------|
|--------------------|-------------------|
|
|  Q.     H      +E    +W
|--------------------|-------------------|
|--------------------|-------------------|
|--------------------|-------------------|
|-/2------0------(0)-|-(0)---------------|
|-/2------0------(0)-|-(0)---------------|
|--------------------|-------------------|


 Interlude
  &
  D5                            E5        D5
 2/4       4/4
  Gtr I
  E E E E    E  E E E E E E E    E  E   E Q   E E  E     E  E E E  E E E E
|---------|-------------------|-----------------------|---------------------|
|---------|-------------------|-----------------------|---------------------|
|-----7---|-------7-------7---|---------9-------7-----|-------7--------7----|
|---7---7-|-----7---7---7---7-|-----9---------7----7--|-----7---7----7---7--|
|-5-------|--5--------5-------|--7--------5-----------|--5---------5--------|
|---------|-------------------|-----------------------|---------------------|
|
| Gtr V
| Q   E E    Q    Q   Q   Q      E  E a E Q.    E  E     Q    Q    Q   Q
|---------|-------------------|-----------------------|---------------------|
|---------|-------6---5-------|-----------------------|-------6---/8---6----|
|-----7-7-|--9------------7---|--4--7-2h4-------7--7--|--9------------------|
|---------|-------------------|-----------------------|---------------------|
|---------|-------------------|-----------------------|---------------------|
|---------|-------------------|-----------------------|---------------------|
|
| Gtrs II, III
| H         +W                   Q.       H       +E    +W
|---------|-------------------|-----------------------|---------------------|
|---------|-------------------|-----------------------|---------------------|
|---------|-------------------|-----------------------|---------------------|
|-0-------|-(0)---------------|-/2--------0-------(0)-|-(0)-----------------|
|-0-------|-(0)---------------|-/2--------0-------(0)-|-(0)-----------------|
|---------|-------------------|-----------------------|---------------------|


  E5        D5
   E  E   E Q   E E  E     E  E E E E E E E
|-----------------------|-------------------|
|-----------------------|-------------------|
|---------9-------7-----|-------7-------7---|
|-----9---------7----7--|-----7---7---7---7-|
|--7--------5-----------|--5--------5-------|
|-----------------------|-------------------|
|
|  E  E a E Q.    E  E     Q    Q   Q   Q
|-----------------------|-------------------|
|--5--6-3h5-------------|-------6---5-------|
|-----------------7--7--|--9------------7---|
|-----------------------|-------------------|
|-----------------------|-------------------|
|-----------------------|-------------------|
|
|  Q.       H       +E    +W
|-----------------------|-------------------|
|-----------------------|-------------------|
|-----------------------|-------------------|
|-/2--------0-------(0)-|-(0)---------------|
|-/2--------0-------(0)-|-(0)---------------|
|-----------------------|-------------------|


  E5        D5
   E  E   E Q   E E  E     E  E E E  E E E E
|-----------------------|--------------------|
|-----------------------|--------------------|
|---------9-------7-----|-------7--------7---|
|-----9---------7----7--|-----7---7----7---7-|
|--7--------5-----------|--5---------5-------|
|-----------------------|--------------------|
|
|  E  E a E Q.    E  E     Q    Q    Q   Q
|-----------------------|--------------------|
|-----------------------|-------6---/8---6---|
|--4--7-2h4-------7--7--|--9-----------------|
|-----------------------|--------------------|
|-----------------------|--------------------|
|-----------------------|--------------------|
|
|  Q.       H       +E    +W
|-----------------------|--------------------|
|-----------------------|--------------------|
|-----------------------|--------------------|
|-/2--------0-------(0)-|-(0)----------------|
|-/2--------0-------(0)-|-(0)----------------|
|-----------------------|--------------------|


  E5        B5
   E  E   E Q   E E  E     E  E E E E E E E
|-----------------------|-------------------|
|-----------------------|-------------------|
|---------9-------4-----|-------4-------4---|
|-----9---------4----4--|-----4---4---4---4-|
|--7--------2-----------|--2--------2-------|
|-----------------------|-------------------|
|
|  E  E a E Q.    E  E     Q    Q   Q   Q
|-----------------------|-------------------|
|--5--6-3h5-------------|-------6---5-------|
|-----------------7--7--|--9------------7---|
|-----------------------|-------------------|
|-----------------------|-------------------|
|-----------------------|-------------------|
|
|  Q.       H       +E    +W
|-----------------------|-------------------|
|-----------------------|-------------------|
|-----------------------|-------------------|
|-/2--------------------|-------------------|
|-/2--------2-------(2)-|-(2)---------------|
|-----------2-------(2)-|-(2)---------------|


  E5        D5
                                              2/4
   E  E   E Q   E E  E     E  E E E  E E E E    E  E E E
|-----------------------|--------------------|------------|
|-----------------------|--------------------|------------|
|---------9-------7-----|-------7--------7---|-------7----|
|-----9---------7----7--|-----7---7----7---7-|-----7---7--|
|--7--------5-----------|--5---------5-------|--5---------|
|-----------------------|--------------------|------------|
|
|  E  E a E Q.    E  E     Q    Q    Q   Q      H
|-----------------------|--------------------|------------|
|-----------------------|-------6---/8---6---|--5---------|
|--4--7-2h4-------7--7--|--9-----------------|------------|
|-----------------------|--------------------|------------|
|-----------------------|--------------------|------------|
|-----------------------|--------------------|------------|
|
|  Q.       H       +E    +W                   +H
|-----------------------|--------------------|------------|
|-----------------------|--------------------|------------|
|-----------------------|--------------------|------------|
|-/2--------0-------(0)-|-(0)----------------|-(0)--------|
|-/2--------0-------(0)-|-(0)----------------|-(0)--------|
|-----------------------|--------------------|------------|


   Chorus
    E5
   4/4
    Gtr I
     E E E E E E E E     E  E E E E E E E
||-------------------|--------------------|
||o------------------|--------------------|
||-------9-------9---|--------9-------9---|
||-----9---9---9---9-|------9---9---9---9-|
||o--7-------7-------|---7--------7-------|
||-------------------|--------------------|
|
|   Gtrs II, III
|    W                  +W
||-------------------|--------------------|
||o------------------|--------------------|
||-------------------|--------------------|
||--/2---------------|--(2)---------------|
||o-/2---------------|--(2)---------------|
||-------------------|--------------------|
|
|   Gtr IV
|    ~~~~~~~~~~~~~~~~~~~~~~~~~~~~~~~~~~~~~~
|    W                  +W
||--24---------------|-(24)---------------|
||o------------------|--------------------|
||-------------------|--------------------|
||-------------------|--------------------|
||o------------------|--------------------|
||-------------------|--------------------|


  D5
   E E E E E E E E     E  E E E E E E E  3x
|------------------|---------------------||
|------------------|--------------------o||
|------7-------7---|--------7-------7----||
|----7---7---7---7-|------7---7---7---7--||
|--5-------5-------|---5--------5-------o||
|------------------|---------------------||
|
|  W                  +W                 3x
|------------------|---------------------||
|------------------|--------------------o||
|------------------|---------------------||
|--0---------------|--(0)----------------||
|--0---------------|--(0)---------------o||
|------------------|---------------------||
|
|~~~~~~~~~~~~~~~~~~~~~~~~~
|  W                  +W                 3x
|-22---------------|-(22)----------------||
|------------------|--------------------o||
|------------------|---------------------||
|------------------|---------------------||
|------------------|--------------------o||
|------------------|---------------------||


  E5                 F5               G5
   E E E E E E E E    E  E  E  E   E   E   E  E
|------------------|----------------------------|
|------------------|----------------------------|
|------9-------9---|-------10-----10---------12-|
|----9---9---9---9-|----10----10----------12----|
|--7-------7-------|--8---------------10--------|
|------------------|----------------------------|
|
|  W                  H           +E   Q.
|------------------|----------------------------|
|------------------|----------------------------|
|------------------|----------------------------|
|-/2---------------|-/3-----------(3)-/5--------|
|-/2---------------|-/3-----------(3)-/5--------|
|------------------|----------------------------|
|
|  ~~~~~~~~~~~~~~~~~~~~~~~~~~~~~~~~~~~
|  W                  H           +E   Q.
|-24---------------|-25----------(25)-----------|
|------------------|----------------------------|
|------------------|----------------------------|
|------------------|----------------------------|
|------------------|----------------------------|
|------------------|----------------------------|


 Outro
  D5                            E5        D5
 2/4       4/4
  Gtr I
  E E E E    E  E E E E E E E    E  E   E Q   E E  E     E  E E E  E E E E
|---------|-------------------|-----------------------|---------------------|
|---------|-------------------|-----------------------|---------------------|
|-----7---|-------7-------7---|---------9-------7-----|-------7--------7----|
|---7---7-|-----7---7---7---7-|-----9---------7----7--|-----7---7----7---7--|
|-5-------|--5--------5-------|--7--------5-----------|--5---------5--------|
|---------|-------------------|-----------------------|---------------------|
|
| Gtr V
| Q   E E    Q    Q   Q   Q      E  E a E Q.    E  E     Q    Q    Q   Q
|---------|-------------------|-----------------------|---------------------|
|---------|-------6---5-------|-----------------------|-------6---/8---6----|
|-----7-7-|--9------------7---|--4--7-2h4-------7--7--|--9------------------|
|---------|-------------------|-----------------------|---------------------|
|---------|-------------------|-----------------------|---------------------|
|---------|-------------------|-----------------------|---------------------|
|
| Gtrs II, III
| H         +W                   Q.       H       +E    +W
|---------|-------------------|-----------------------|---------------------|
|---------|-------------------|-----------------------|---------------------|
|---------|-------------------|-----------------------|---------------------|
|-0-------|-(0)---------------|-/2--------0-------(0)-|-(0)-----------------|
|-0-------|-(0)---------------|-/2--------0-------(0)-|-(0)-----------------|
|---------|-------------------|-----------------------|---------------------|


    E5        D5
     E  E   E Q   E E  E     E  E E E E E E E
||------------------------|-------------------|
||o-----------------------|-------------------|
||----------9-------7-----|-------7-------7---|
||------9---------7----7--|-----7---7---7---7-|
||o--7--------5-----------|--5--------5-------|
||------------------------|-------------------|
|
|    E  E a E Q.    E  E     Q    Q   Q   Q
||------------------------|-------------------|
||o--5--6-3h5-------------|-------6---5-------|
||------------------7--7--|--9------------7---|
||------------------------|-------------------|
||o-----------------------|-------------------|
||------------------------|-------------------|
|
|    Q.       H       +E    +W
||------------------------|-------------------|
||o-----------------------|-------------------|
||------------------------|-------------------|
||--/2--------0-------(0)-|-(0)---------------|
||o-/2--------0-------(0)-|-(0)---------------|
||------------------------|-------------------|


  E5        D5
   E  E   E Q   E E  E     E  E E E  E E E E
|-----------------------|----------------------||
|-----------------------|---------------------o||
|---------9-------7-----|-------7--------7-----||
|-----9---------7----7--|-----7---7----7---7---||
|--7--------5-----------|--5---------5--------o||
|-----------------------|----------------------||
|
|  E  E a E Q.    E  E     Q    Q    Q   Q
|-----------------------|----------------------||
|-----------------------|-------6---/8---6----o||
|--4--7-2h4-------7--7--|--9-------------------||
|-----------------------|----------------------||
|-----------------------|---------------------o||
|-----------------------|----------------------||
|
|  Q.       H       +E    +W
|-----------------------|----------------------||
|-----------------------|---------------------o||
|-----------------------|----------------------||
|-/2--------0-------(0)-|-(0)------------------||
|-/2--------0-------(0)-|-(0)-----------------o||
|-----------------------|----------------------||


  E5        D5                                E5
                                                         Gtr IV
                                                          ~~~~~~~~~~~~~~~~~
   E  E   E Q   E E  E     E  E E E E E E E    E  E   E   H     +E     +W
|-----------------------|-------------------|------------22----(22)-|-(22)----|
|-----------------------|-------------------|-----------------------|---------|
|---------9-------7-----|-------7-------7---|---------9-------------|---------|
|-----9---------7----7--|-----7---7---7---7-|-----9-----------------|---------|
|--7--------5-----------|--5--------5-------|--7--------------------|---------|
|-----------------------|-------------------|-----------------------|---------|
|
|                                                     ~~~~~~~~~~~~~~~~~~~~~
|  E  E a E Q.    E  E     Q    Q   Q   Q      E  E a H.               +W
|-----------------------|-------------------|-----------------------|---------|
|--5--6-3h5-------------|-------6---5-------|-----------------------|---------|
|-----------------7--7--|--9------------7---|--4--7-2h4-------------|--(4)----|
|-----------------------|-------------------|-----------------------|---------|
|-----------------------|-------------------|-----------------------|---------|
|-----------------------|-------------------|-----------------------|---------|
|
|  Q.       H       +E    +W                   Q.         H     +E     +W
|-----------------------|-------------------|-----------------------|---------|
|-----------------------|-------------------|-----------------------|---------|
|-----------------------|-------------------|-----------------------|---------|
|-/2--------0-------(0)-|-(0)---------------|-/2----------0-----(0)-|--(0)----|
|-/2--------0-------(0)-|-(0)---------------|-/2----------0-----(0)-|--(0)----|
|-----------------------|-------------------|-----------------------|---------|


  N.C.
    ~~~~~~~~~~~~~~~~~~~~~~~~~~~~~~~~~~~~~~~~~~~~~
   +W            +W            +W            +W
|-(22)--------|-(22)--------|-(22)--------|-(22)----*|
|-------------|-------------|-------------|---------*|
|-------------|-------------|-------------|---------*|
|-------------|-------------|-------------|---------*|
|-------------|-------------|-------------|---------*|
|-------------|-------------|-------------|---------*|
|
|   ~~~~~~~~~~~~~~~~~~~~~~~~~~~~~~~~~~~~~~~~~~~~~
|  +W            +W            +W            +W
|-------------|-------------|-------------|---------*|
|-------------|-------------|-------------|---------*|
|--(4)--------|--(4)--------|--(4)--------|--(4)----*|
|-------------|-------------|-------------|---------*|
|-------------|-------------|-------------|---------*|
|-------------|-------------|-------------|---------*|
|
|  +W            +W            +W            +W
|-------------|-------------|-------------|---------*|
|-------------|-------------|-------------|---------*|
|-------------|-------------|-------------|---------*|
|--(0)--------|--(0)--------|--(0)--------|--(0)----*|
|--(0)--------|--(0)--------|--(0)--------|--(0)----*|
|-------------|-------------|-------------|---------*|



Duration Legend
---------------
W - whole; H - half; Q - quarter; E - 8th; S - 16th; T - 32nd; X - 64th; a - acciaccatura
+ - note tied to previous; . - note dotted; .. - note double dotted
Uncapitalized letters represent notes that are staccato (1/2 duration)
Irregular groupings are notated above the duration line
Duration letters will always appear directly above the note/fret number it represents the
duration for.  Duration letters with no fret number below them represent rests.  Multi-
bar rests are notated in the form Wxn, where n is the number of bars to rest for.  Low
melody durations appear below the staff

Tablature Legend
----------------
 h   - hammer-on
 p   - pull-off
 b   - bend
 pb  - pre-bend
 r   - bend release (if no number after the r, then release immediately)
 /\  - slide into or out of (from/to "nowhere")
 s   - legato slide
 S   - shift slide
 - natural harmonic
[n]  - artificial harmonic
n(n) - tapped harmonic
 ~   - vibrato
 tr  - trill
 T   - tap
 TP  - trem. picking
 PM  - palm muting
\n/  - tremolo bar dip; n = amount to dip
 \n  - tremolo bar down
 n/  - tremolo bar up
/n\  - tremolo bar inverted dip
 =   - hold bend; also acts as connecting device for hammers/pulls
 <> - volume swell (louder/softer)
 x   - on rhythm slash represents muted slash
 o   - on rhythm slash represents single note slash

Misc Legend
-----------
 |  - bar
||  - double bar
||o - repeat start
o|| - repeat end
*|  - double bar (ending)
 :  - bar (freetime)
 $  - Segno
 &  - Coda
Tempo markers -  = BPM(8/16=s8/s16), where s8 = swing 8ths, s16 = swing 16ths





Comments


Popular Wednesday 13 tabs & chords
Dead Carolina Bass Tabs
God Is A Lie 4 Bass Tabs
Look What The Bats Dragged In Bass Tabs
Mr Motherfucker Bass Tabs
With Friends Like These Bass Tabs
Bad Things 1 Tabs
God Is A Lie Tabs
Haunt Me Tabs
Haunt Me 1 Tabs
Too Much Blood Tabs


Song lyrics



↑ Back to top | Tablatures and chords are parodies/interpretations of the original songs. You may use it for private study, scholarship, research or language learning purposes only
© 2014 AZChords.com Contact us | Privacy policy | DMCA | Add/correct tabs | Request tabs | Top 50 tabs