» » »

Scary Song Tabs (ver.1)

Artists:  A B C D E F G H I J K L M N O P Q R S T U V W X Y Z # 

Scary Song Tabs (ver.1)

Wednesday 13
Rating:
0/5 (0 votes)

Hard to play? Try these video lessons and learn fast.
                Wednesday 13 are a great band so there should be more tabs for them!!
I'm not sure wether the solo in this tab is correct but if you have any corrections plz 

Intro:

E|--------------|-----------------|
B|--------------|-----------------|
G|--------------|-----------------|
D|--2-----5-----|--4--5--4--2-----|
A|--2-----5-----|--4--5--4--2-----|
E|--0-----3-----|--2--3--2--0-----|

Verse:

E|--------------|--------------|
B|--------------|--------------|
G|--------------|--------------|
D|--2-----3-----|--4-----5--4--| x3
A|--2-----3-----|--4-----5--4--|
E|--0-----1-----|--2-----3--2--|

E|--------------|--------------|
B|--------------|--------------|
G|--------------|--------------|
D|--2-----------|--2-----------|
A|--2-----------|--2-----------|
E|--0-----------|--0-----------|

Chorus:

E|--------------|-----------------|
B|--------------|-----------------|
G|--------------|-----------------|
D|--2-----5-----|--4--5--4--2-----|
A|--2-----5-----|--4--5--4--2-----|
E|--0-----3-----|--2--3--2--0-----|

Fill: (Rhythm guitar plays verse)

E|--------------|--------------|
B|--------------|--------------|
G|--------------|--------------|
D|--14~---------|-16~----------|
A|--------------|--------------|
E|--------------|--------------|

E|--------------|----------------|
B|--17~---------|-17-------------|
G|--------------|----------------|
D|--------------|----------------|
A|--------------|----------------|
E|--------------|----------------|

Verse:

E|--------------|--------------|
B|--------------|--------------|
G|--------------|--------------|
D|--2-----3-----|--4-----5--4--| x3
A|--2-----3-----|--4-----5--4--|
E|--0-----1-----|--2-----3--2--|

E|--------------|--------------|
B|--------------|--------------|
G|--------------|--------------|
D|--2-----------|--2-----------|
A|--2-----------|--2-----------|
E|--0-----------|--0-----------|


Chorus:

E|--------------|-----------------|
B|--------------|-----------------|
G|--------------|-----------------|
D|--2-----5-----|--4--5--4--2-----|
A|--2-----5-----|--4--5--4--2-----|
E|--0-----3-----|--2--3--2--0-----|

Solo: (Rhythm guitar plays verse)

E|--------------------------------|
B|--------------------------------|
G|--16~--16b-16b-16b-16b-16b-16b--|
D|--------------------------------|
A|--------------------------------|
E|--------------------------------|

E|--------------------------------|
B|--------------------------------|
G|--17-16-------------------------|
D|--------14-16~-----16-16-14-16--|
A|--------------------------------|
E|--------------------------------|

E|--------------------------------|
B|--------------------------------|
G|--14-16-14-16-14-16-14-16-14-16-|
D|--------------------------------|
A|--------------------------------|
E|--------------------------------|

E|--------------------------------|
B|--17~----15~--------------------|
G|----------------16~----14~------|
D|--------------------------------|
A|--------------------------------|
E|--------------------------------|

E|--------------------------------|
B|--------------------------------|
G|--14-16-14-16-14-16-14-16-14-16-|
D|--------------------------------|
A|--------------------------------|
E|--------------------------------|

E|--------------------------------|
B|-15------15------15------15-----|
G|---16-17---16-14---16-14---16-14|
D|--------------------------------|
A|--------------------------------|
E|--------------------------------|

E|--------------------------------|
B|--15-17-15-17-16-17-16-17-16-17-|
G|--------------------------------|
D|--------------------------------|
A|--------------------------------|
E|--------------------------------|

E|--------------------------------|
B|--17b-17b-17b-17b-17b-17b-17b~--|
G|--------------------------------|
D|--------------------------------|
A|--------------------------------|
E|--------------------------------|

Chorus:

E|--------------|-----------------|
B|--------------|-----------------|
G|--------------|-----------------|
D|--2-----5-----|--4--5--4--2-----|
A|--2-----5-----|--4--5--4--2-----|
E|--0-----3-----|--2--3--2--0-----|
            
Hard to play? Try these video lessons and learn fast. | Correct




comments powered by Disqus
↑ Back to top | Tablatures and chords are parodies/interpretations of the original songs. You may use it for private study, scholarship, research or language learning purposes only