» » »

My Homesweet Homicide Tabs (ver.2)

Artists:  A B C D E F G H I J K L M N O P Q R S T U V W X Y Z # 

My Homesweet Homicide Tabs (ver.2)

Wednesday 13
Rating:
0/5 (0 votes)

Tabs too difficult? Try these video lessons and learn fast.
                (Intro)
My first tab.

EADGBE.

Intro:

E|---------------------------------------------------------|
B|---------------------------------------------------------|
G|---------------------------------------------------------|
D|--2--2------------------------2--2-----------------------|
A|--0--0--2----2--2--2--2----2--0--0--2--------------------|
E|--------0----0--0--0--0----0--------0--------------------|


E|----------------------------------------------------------|
B|----------------------------------------------------------|
G|----------------------------------------------------------|
D|-------------2--2-----------------------------------------|
A|--0--2--0----0--0--2--------------------------------------|
E|--0--0--0----------0--------------------------------------|

Then the verses come, i think it is almost the same.

Enjoy!
            
Tabs too difficult? Try these video lessons and learn fast.




comments powered by Disqus
↑ Back to top | Tablatures and chords are parodies/interpretations of the original songs. You may use it for private study, scholarship, research or language learning purposes only