» » »

Mftw Bass tabs (ver.1)

Artists:  A B C D E F G H I J K L M N O P Q R S T U V W X Y Z # 

Mftw Bass tabs (ver.1)

Wednesday 13
Rating:
0/5 (0 votes)

Tabs too difficult? Try these video lessons and learn fast.
                -----------------------------------------------------------------------------
                             M.F.T.W. - Wednesday 13
-----------------------------------------------------------------------------

Intro:

F|----------------------------------------------------------------|
C|----------------------------------------------------------------|
G|----------------------------------------------------------------|
C|--02202-20-555252--02202-20-75202-------------------------------|(x2)

Verse:

F|----------------------------------------------------------------|
C|----------------------------------------------------------------|
G|--------------------------------77-77---------------------------|
C|--2222-5555--5757-55--2222-5555---------------------------------|(x2)

Pre-chorus:

F|----------------------------------------------------------------|
C|----------------------------------------------------------------|
G|----------------------------------------------------------------|
C|--7777-5555--22-22-22-22-22--7777-5555-4444-3333----------------|

Chorus:

F|----------------------------------------------------------------|
C|----------------------------------------------------------------|
G|----------------------------------------------------------------|
C|--02202-20-555252--02202-20-75202-------------------------------|(x2)

Post chorus:

F|----------------------------------------------------------------|
C|----------------------------------------------------------------|
G|----------------------------------------------------------------|
C|--02-02-02-02-xxxx-02-02-02-02-55-------------------------------|(x2)

Verse 2 like the first one.
Pre chorus 2 like the first one.
Chorus 2 like the first one.
Post chorus 2 like the first one.

Solo:

F|----------------------------------------------------------------|
C|----------------------------------------------------------------|
G|----------------------------------------------------------------|
C|--02-02-02-02-xxxx-02-02-02-02-55-------------------------------|(x2)

Pre chorus 3 like the others.
The last chorus has that drum "solo". You`ll figure it out.
And the song ends with 2 post choruses. After that it is only the post chorus`s 
instrumental. Keep it til fade out!
            
Tabs too difficult? Try these video lessons and learn fast.




comments powered by Disqus
↑ Back to top | Tablatures and chords are parodies/interpretations of the original songs. You may use it for private study, scholarship, research or language learning purposes only