» » »

London After Midnight Bass tabs (ver.1)

Artists:  A B C D E F G H I J K L M N O P Q R S T U V W X Y Z # 

London After Midnight Bass tabs (ver.1)

Wednesday 13
Rating:
0/5 (0 votes)

Tabs too difficult? Try these video lessons and learn fast.
                -----------------------------------------------------------------------------
                             London after midnight - Wednesday 13
-----------------------------------------------------------------------------

Intro:

F|---------------------------------------------------------------|
C|---------------------------------------------------------------|
G|----7~-5~------------------------------------------------------|
C|-5~------------------------------------------------------------|

Verse:

F|---------------------------------------------------------------|
C|---------------------------------------------------------------|
G|-55555555(x2)-----------------------77777777-55555555(x2)------|
C|--------------44444444(x2)-55555555----------------------------|(x2)

Pre-chorus:

F|---------------------------------------------------------------|
C|---------------------------------------------------------------|
G|-33333333(x2)--------------55555555(x2)-4h55555555-7-5-2-3-----|
C|--------------55555555(x2)-------------------------------------|

Ok. The last 3 from above is the first 3 from the second part of the pre-chorus. So 
after that 2, you play 16 3s directly. No long note before.

F|---------------------------------------------------------------|
C|---------------------------------------------------------------|
G|-33333333(x2)--------------------------------------------------|
C|--------------55555555(x2)-77777777-55555555-44444444-5--------|

Chorus:

F|---------------------------------------------------------------|
C|---------------------------------------------------------------|
G|-55555555(x2)-----------------------77777777-55555555(x2)------|
C|--------------44444444(x2)-55555555----------------------------|(x2)

Solo between chorus and 2nd verse:

F|---------------------------------------------------------------|
C|---------------------------------------------------------------|
G|-55555555(x2)-----------------------77777777-55555555----------|
C|--------------44444444(x2)-55555555----------------------------|

Verse 2 like the first one.
Pre-chorus 2 like the first one.
Chorus 2 like the first one.

Solo:

F|----------------------------------------------------------------|
C|----------------------------------------------------------------|
G|-55555555(x2)-----------------------77777777-55555555-----------|
C|--------------44444444(x2)-55555555-----------------------------|

Pre-chorus 3 like the others.
Chorus 3 like the others.

For the 3rd chorus, you play it normal twice. The third and last time it goes like this:

F|----------------------------------------------------------------|
C|----------------------------------------------------------------|
G|-55555555(x2)-----------------7~-5~-----------------------------|
C|--------------44444444(x2)-5~-----------------------------------|
            
Tabs too difficult? Try these video lessons and learn fast.




comments powered by Disqus
↑ Back to top | Tablatures and chords are parodies/interpretations of the original songs. You may use it for private study, scholarship, research or language learning purposes only