» » »

Wednesday 13, Kill You Before You Kill Me Tabs (ver.1)

Artists:  A B C D E F G H I J K L M N O P Q R S T U V W X Y Z # 

Kill You Before You Kill Me Tabs (ver.1)

Wednesday 13 Tabs
 Rating:
4/5 (4 votes)
Kill You Before You Kill Me lessons Tabs too difficult? Try these video lessons and learn fast
                
Kill you Before You Kill me

Eb---------------------------------------------|
Bb---------------------------------------------|
Gb---------------------------------------------|
Db--55-555-44-444-22-222-55-555-77-777-99-999--|
Ab--33-333-22-222-00-000-33-333-55-555-77-777--|
Db---------------------------------------------|

Gtr. 2

Eb-------------------------------------|
Bb-------------------------------------|
Gb-------------------------------------|
Db—10~-9~-7~-10~-12~-12-14~------------|
Ab-------------------------------------|
Db-------------------------------------|

Optional Riff I threw In (this isn’t in the song, but it works well with it if you
the verse once then follow it with this)

Eb---------------------------------------------------------|
Bb---------------------------------------------------------|
Gb---------------------------------------------------------|
Db--55-555-44-444-22-222-55-555--99-999--------------------|
Ab--33-333-22-222-00-000-33-333--77-777-77-777-777---------|
Db--------------------------------------77-777-777—--------|

Chorus:(play this piece 3x)

Eb----------------------------------------|
Bb----------------------------------------|
Gb----------------------------------------|
Db----------------------------------------|
Ab--55-555-555-555-77-777-777-777---------|
Db--55-555-555-555-77-777-777-777—--------|

(4th time)

Eb------------|
Bb------------|
Gb------------|
Db------------|
Ab--3333-0000-|
Db--3333-0000-|

Chorus:

Gtr. 2

Eb------------------------------------------------|
Bb------------------------------------------------|
Gb------------------------------------------------|
Db-pickslide—5~--7~--5~--7~-5~-7~-3~-0~-----------|
Ab------------------------------------------------|
Db------------------------------------------------|

End: (4x)

Eb------------------|
Bb------------------|
Gb------------------|
Db-------------5~---|
Ab--3333-0000--3-~--|
Db--3333-0000-------|

Gtr. 2

Eb-------------------|
Bb-------------------|
Gb-------------------|
Db—3~-0~-10~---------|
Ab-------------------|
Db-------------------|
            
Submit corrections

comments powered by Disqus
↑ Back to top | Wednesday 13 Tabs for Kill You Before You Kill Me. Lyrics for acoustic guitar and electric guitar. Tablatures and chords are parodies/interpretations of the original songs. You may use it for private study, scholarship, research or language learning purposes only