>
 >
I Want You Dead 1

I Want You Dead 1 Guitar Tabs

Wednesday 13 - I Want You Dead 1 chords, tabs, tablatures, lyrics

Guitar lessons | Add/correct | Request | Top 50 tabs Artists:  A B C D E F G H I J K L M N O P Q R S T U V W X Y Z 0-9

I Want You Dead 1 Guitar Tabs – Wednesday 13

CD, Sheet music, Poster

Do you like I Want You Dead 1? Share with your friends now
Bass TabsTabsTabs v2
----------------------------------------------------------------------------
                            Wednesday 13 - I Want You... Dead
----------------------------------------------------------------------------


Tuning: CGCFAD

Intro - Riff:
D|---------------------|       D|----------------------|
A|---------------------|       A|----------------------|
F|---------------------|       F|----------------------|
C|---------------------|  x3   C|----------------------|
G|----5---55---55---55-|       G|----5---55---55---55\-|
C|-00---0----0----0----|       C|-00---0----0----0-----|

D|-----------------------------------------------|
A|-----------------------------------------------|
F|-----------------------------------------------|
C|-----------------------------------------------|
G|----5---55---55---55---55----55---55---55---88-|
C|-00---0----0----0----0----00----0----0----0----|

D|--------------------------------------------------|
A|--------------------------------------------------|
F|--------------------------------------------------|
C|--------------------------------------------------|
G|----5---55---55---55---55----55---55---55---88-8~-|
C|-00---0----0----0----0----00----0----0----0-------|

Rhythm Guitar part:
D|--------------------------------|
A|--------------------------------|
F|--------------------------------|
C|-00----00----00----00----3-3-3~-|
G|-00----00----00----00----3-3-3~-|
C|-00----00----00----00----3-3-3~-|

Both Guitars play this:
D|-----------------------------------------------|
A|-----------------------------------------------|
F|-----------------------------------------------|
C|-----------------------------------------------|
G|----5---55---55---55---55----55---55---55---88-|
C|-00---0----0----0----0----00----0----0----0----|

D|--------------------------------------------------|
A|--------------------------------------------------|
F|--------------------------------------------------|
C|--------------------------------------------------|
G|----5---55---55---55---55----55---55---55---88-8~-|
C|-00---0----0----0----0----00----0----0----0-------|

D|----------------------------------------|
A|----------------------------------------|
F|----------------------------------------|
C|-00-3~-00-5~-00-3~----------------------|  x2
G|-00-3~-00-5~-00-3~----------------------|
C|-00-3~-00-5~-00-3~-12-10-10-10-10-8-7-5-|  <- Can play this up an octave

Solo Part:
D|-------------|
A|-3b~-3b~-3b~-|
F|-------------|
C|-------------|  x2
G|-------------|
C|-------------|


Verse:
D|-----------------------------------------------|
A|-----------------------------------------------|
F|-----------------------------------------------|
C|-----------------------------------------------|
G|----5---55---55---55---55----55---55---55---88-|
C|-00---0----0----0----0----00----0----0----0----|

D|--------------------------------------------------|
A|--------------------------------------------------|
F|--------------------------------------------------|
C|--------------------------------------------------|
G|----5---55---55---55---55----55---55---55---88-8~-|
C|-00---0----0----0----0----00----0----0----0-------|


Pre-Chorus:
D|----------------------------------------|
A|----------------------------------------|
F|----------------------------------------|
C|-00-3~-00-5~-00-3~----------------------|   x2
G|-00-3~-00-5~-00-3~----------------------|
C|-00-3~-00-5~-00-3~-12-10-10-10-10-8-7-5-|

Solo Part:
D|-------------|
A|-3b~-3b~-3b~-|
F|-------------|
C|-------------|  x2
G|-------------|
C|-------------|


Chorus:
D|------------------------------------------------------------|
A|------------------------------------------------------------|
F|-3333-3355-7777-7755-3333-3355------7------7------7------75-|
C|-3333-3355-7777-7755-3333-3355-0x0x-7-0x0x-7-0x0x-7-0x0x-75-|
G|-1111-1133-5555-5533-1111-1133-0x0x-5-0x0x-5-0x0x-5-0x0x-53-|
C|-------------------------------0x0x---0x0x---0x0x---0x0x----|

D|-----------------------------------------|
A|-----------------------------------------|
F|-3333-3355-7777-7777-5555-5555-3333-5555-|
C|-3333-3355-7777-7777-5555-5555-3333-5555-|
G|-1111-1133-5555-5555-3333-3333-1111-3333-|
C|-----------------------------------------|

Solo Part:
D|-----------------------------------------|
A|-15~-\3~-/15~-\3~-/15~-\3~-5~-6~-8~-/15~-|
F|-----------------------------------------|
C|-----------------------------------------|
G|-----------------------------------------|
C|-----------------------------------------|

D|-----------------------------------------------|
A|-----------------------------------------------|
F|-----------------------------------------------|
C|-----------------------------------------------|   x2
G|----5---55---55---55---55----55---55---55---88-|
C|-00---0----0----0----0----00----0----0----0----|


Verse 2:
D|-----------------------------------------------|
A|-----------------------------------------------|
F|-----------------------------------------------|
C|-----------------------------------------------|
G|----5---55---55---55---55----55---55---55---88-|
C|-00---0----0----0----0----00----0----0----0----|

D|--------------------------------------------------|
A|--------------------------------------------------|
F|--------------------------------------------------|
C|--------------------------------------------------|
G|----5---55---55---55---55----55---55---55---88-8~-|
C|-00---0----0----0----0----00----0----0----0-------|


Pre-Chorus:
D|----------------------------------------|
A|----------------------------------------|
F|----------------------------------------|
C|-00-3~-00-5~-00-3~----------------------|   x2
G|-00-3~-00-5~-00-3~----------------------|
C|-00-3~-00-5~-00-3~-12-10-10-10-10-8-7-5-|

Solo Part:
D|-------------|
A|-3b~-3b~-3b~-|
F|-------------|
C|-------------|  x2
G|-------------|
C|-------------|


Chorus 2:
D|------------------------------------------------------------|
A|------------------------------------------------------------|
F|-3333-3355-7777-7755-3333-3355------7------7------7------75-|
C|-3333-3355-7777-7755-3333-3355-0x0x-7-0x0x-7-0x0x-7-0x0x-75-|
G|-1111-1133-5555-5533-1111-1133-0x0x-5-0x0x-5-0x0x-5-0x0x-53-|
C|-------------------------------0x0x---0x0x---0x0x---0x0x----|

D|-----------------------------------------|
A|-----------------------------------------|
F|-3333-3355-7777-7777-5555-5555-3333-5555-|
C|-3333-3355-7777-7777-5555-5555-3333-5555-|
G|-1111-1133-5555-5555-3333-3333-1111-3333-|
C|-----------------------------------------|

Solo Part:
D|-----------------------------------------|
A|-15~-\3~-/15~-\3~-/15~-\3~-5~-6~-8~-/15~-|
F|-----------------------------------------|
C|-----------------------------------------|
G|-----------------------------------------|
C|-----------------------------------------|

D|-----------------------------------------------|
A|-----------------------------------------------|
F|-----------------------------------------------|
C|-----------------------------------------------|
G|----5---55---55---55---55----55---55---55---88-|
C|-00---0----0----0----0----00----0----0----0----|

D|--------------------------------------------------|
A|--------------------------------------------------|
F|--------------------------------------------------|
C|--------------------------------------------------|
G|----5---55---55---55---55----55---55---55---88-8~-|
C|-00---0----0----0----0----00----0----0----0-------|


Bridge:
D|------------------------------------------------------------|
A|------------------------------------------------------------|
F|-3333-3355-7777-7755-3333-3355------7------7------7------75-|
C|-3333-3355-7777-7755-3333-3355-0x0x-7-0x0x-7-0x0x-7-0x0x-75-|
G|-1111-1133-5555-5533-1111-1133-0x0x-5-0x0x-5-0x0x-5-0x0x-53-|
C|-------------------------------0x0x---0x0x---0x0x---0x0x----|

D|-----------------------------------------|
A|-----------------------------------------|
F|-3333-3355-7777-7777-5555-5555-3333-5555-|
C|-3333-3355-7777-7777-5555-5555-3333-5555-|
G|-1111-1133-5555-5555-3333-3333-1111-3333-|
C|-----------------------------------------|

Solo Part:
D|-------------------------0---5-5-3-5-3-0-|
A|-3-1-------3-1-------1-3---3-------------|
F|-------0-------3-2-3---------------------|
C|-----3---3-------------------------------|
G|-----------------------------------------|
C|-----------------------------------------|

D|----------------------10--10--10--10--6-6-6-8-6-8-6-8-10-8-6-5-|
A|---6-4---4--6-4---4--------------------------------------------|
F|-3-----5--------5----------------------------------------------|
C|---------------------------------------------------------------|
G|---------------------------------------------------------------|
C|---------------------------------------------------------------|

(Listen to the music for how many times you play this.)
D|---8-6---8-6---8-6---8-6---8-6---8-6---8-6---8-10~-|
A|-6-----6-----6-----6-----6-----6-----6-----6-------|
F|---------------------------------------------------|
C|---------------------------------------------------|
G|---------------------------------------------------|
C|---------------------------------------------------|


D|-----------------------------------------------|
A|-----------------------------------------------|
F|-----------------------------------------------|
C|-----------------------------------------------|
G|----5---55---55---55---55----55---55---55---88-|
C|-00---0----0----0----0----00----0----0----0----|

D|--------------------------------------------------|
A|--------------------------------------------------|
F|--------------------------------------------------|
C|--------------------------------------------------|
G|----5---55---55---55---55----55---55---55---88-8~-|
C|-00---0----0----0----0----00----0----0----0-------|

Rhythm Guitar part:
D|--------------------------------|
A|--------------------------------|
F|--------------------------------|
C|-00----00----00----00----3-3-3~-|
G|-00----00----00----00----3-3-3~-|
C|-00----00----00----00----3-3-3~-|

Both Guitars play this:
D|-----------------------------------------------|
A|-----------------------------------------------|
F|-----------------------------------------------|
C|-----------------------------------------------|
G|----5---55---55---55---55----55---55---55---88-|
C|-00---0----0----0----0----00----0----0----0----|

D|----------------------------------------------|
A|----------------------------------------------|
F|----------------------------------------------|
C|----------------------------------------------|
G|----5---55---55---55---55----55---55---55---8-|
C|-00---0----0----0----0----00----0----0----0---|


Verse 3:
D|-----------------------------------------------|
A|-----------------------------------------------|
F|-----------------------------------------------|
C|-----------------------------------------------|
G|----5---55---55---55---55----55---55---55---88-|
C|-00---0----0----0----0----00----0----0----0----|

D|--------------------------------------------------|
A|--------------------------------------------------|
F|--------------------------------------------------|
C|--------------------------------------------------|
G|----5---55---55---55---55----55---55---55---88-8~-|
C|-00---0----0----0----0----00----0----0----0-------|


Pre-Chorus:
D|----------------------------------------|
A|----------------------------------------|
F|----------------------------------------|
C|-00-3~-00-5~-00-3~----------------------|   x2
G|-00-3~-00-5~-00-3~----------------------|
C|-00-3~-00-5~-00-3~-12-10-10-10-10-8-7-5-|

Solo Part:
D|-------------|
A|-3b~-3b~-3b~-|
F|-------------|
C|-------------|  x2
G|-------------|
C|-------------|

Chorus 3:
D|------------------------------------------------------------|
A|------------------------------------------------------------|
F|-3333-3355-7777-7755-3333-3355------7------7------7------75-|
C|-3333-3355-7777-7755-3333-3355-0x0x-7-0x0x-7-0x0x-7-0x0x-75-|
G|-1111-1133-5555-5533-1111-1133-0x0x-5-0x0x-5-0x0x-5-0x0x-53-|
C|-------------------------------0x0x---0x0x---0x0x---0x0x----|

D|-----------------------------------------|
A|-----------------------------------------|
F|-3333-3355-7777-7777-5555-5555-3333-5555-|
C|-3333-3355-7777-7777-5555-5555-3333-5555-|
G|-1111-1133-5555-5555-3333-3333-1111-3333-|
C|-----------------------------------------|

Solo Part:
D|-----------------------------------------|
A|-15~-\3~-/15~-\3~-/15~-\3~-5~-6~-8~-/15~-|
F|-----------------------------------------|
C|-----------------------------------------|
G|-----------------------------------------|
C|-----------------------------------------|


Outro:
D|-----------------------------------------------|
A|-----------------------------------------------|
F|-----------------------------------------------|
C|-----------------------------------------------|
G|----5---55---55---55---55----55---55---55---88-|
C|-00---0----0----0----0----00----0----0----0----|

D|-----------------------------------------------|
A|-----------------------------------------------|
F|-----------------------------------------------|
C|-----------------------------------------------|
G|----5---55---55---55---55----55---55---55---55-|
C|-00---0----0----0----0----00----0----0----0----|

D|-----------------------------------------------|
A|-----------------------------------------------|
F|-----------------------------------------------|
C|-----------------------------------------------|
G|----5---55---55---55---55----55---55---55---88-|
C|-00---0----0----0----0----00----0----0----0----|

D|-------------------------------------------------------|
A|-------------------------------------------------------|
F|-------------------------------------------------------|
C|-------------------------------------------------------|
G|----5---55---55---55---55----55---55---55---5----888-5-|
C|-00---0----0----0----0----00----0----0----0------------|

Or end on the chords:
D|-------|
A|-------|
F|-------|
C|-333-1-|
G|-333-1-|
C|-333-1-|


************************************

| /   slide up
| \   slide down
| ~   vibrato
| x   Mute note
| b   Bend

************************************

If you have any comments/corrections, please say in either the commentsbox or send me a 
message. Good luck and enjoy!





Comments


Popular Wednesday 13 tabs & chords
I Want You Dead Bass Tabs
Silver Bullets Bass Tabs
B-movie Babylon Tabs
Bad Things 3 Tabs
Burried By Christmas Tabs
Ghost Stories Tabs
Gimme Gimme Bloodshed 1 Tabs
My Demise 1 Tabs
One Knife Stand 1 Tabs
With Friends Like These Tabs


Song lyrics



↑ Back to top | Tablatures and chords are parodies/interpretations of the original songs. You may use it for private study, scholarship, research or language learning purposes only
© 2014 AZChords.com Contact us | Privacy policy | DMCA | Add/correct tabs | Request tabs | Top 50 tabs