» » »

Wednesday 13, I Want You Dead Tabs (ver.1)

Artists:  A B C D E F G H I J K L M N O P Q R S T U V W X Y Z # 

I Want You Dead Tabs (ver.1)

Wednesday 13 Tabs
 Rating:
4/5 (4 votes)
I Want You Dead lessons Tabs too difficult? Try these video lessons and learn fast
                
The main riff to this song is pretty tricky. I'm not sure I tabbed it right but i'm sure 
notes are right.

Intro:

D----------------------------|
A----------------------------|
F----------------------------|
C----------------------------|
G--0-5-5-0-5-5-0-5-5--0-5-5--|
C----------------------------|

Pre-Verse:

D----------------------------------------------------------------------|
A----------------------------------------------------------------------|
F----------------------------------------------------------------------|
C----------------------------------------------------------------------|
G--0-5-5-0-5-5-0-5-5--0-5-5-0-5-5-5-0-5-5-0-5-5-0-5-5-0-5-5-5-5-8-8-8~-|
C----------------------------------------------------------------------|

Riff 3(palm mute open strings)

D-----------------------------------|
A-----------------------------------|
F-----------------------------------|
G------10-------2-----10----7-----5-|
C------8-------10-----8-----5-----3-|
C--000----000-----000----00----00---|


Chorus:(palm mute open chords)

D--------------------------------------------------------------------------|
A--------------------------------------------------------------------------|
F--------------------------------------------------------------------------|
C-33-333-333-333-77-777-777-777-33-333-333-333----7----7-----7---7---------|
G—11-111-111-111-55-555-555-555-11-111-111-111----5----5-----5---5---|
C----------------------------------------------00---00---00---00-----------|

Cont.

D--------------------------------------------------------------------|
A--------------------------------------------------------------------|
F--------------------------------------------------------------------|
C-33-333-333-333-77-777-777-777--55-555-555-555-33-333-55-555--------|
G—11-111-111-111-55-555-555-555--33-333-333-333-11-111-33-333--|
C--------------------------------------------------------------------|

End:

D------------------------------------------------------------------|
A------------------------------------------------------------------|
F------------------------------------------------------------------|
C------------------------------------------------------------------|
G--0-5-5-0-5-5-0-5-5--0-5-5-0-5-5-5-0-5-5-0-5-5-0-5-5-0-5-5-5-5-8~-|
C------------------------------------------------------------------|

D-------------|
A-------------|
F-------------|
C-101010--7~--|
G--8-8-8--5~--|
C-------------|
            
Submit corrections

comments powered by Disqus
↑ Back to top | Wednesday 13 Tabs for I Want You Dead. Lyrics for acoustic guitar and electric guitar. Tablatures and chords are parodies/interpretations of the original songs. You may use it for private study, scholarship, research or language learning purposes only