>
 >
I Wanna Be Cremated

I Wanna Be Cremated Guitar Tabs

Wednesday 13 - I Wanna Be Cremated chords, tabs, tablatures, lyrics

Guitar lessons | Add/correct | Request | Top 50 tabs Artists:  A B C D E F G H I J K L M N O P Q R S T U V W X Y Z 0-9

I Wanna Be Cremated Guitar Tabs – Wednesday 13

CD, Sheet music, Poster

Do you like I Wanna Be Cremated? Share with your friends now
Bass TabsTabs
-----------------------------------------------------------------------------
                        Wednesday 13 - I Wanna Be Cremated
-----------------------------------------------------------------------------


Tuning:CGCFAD

Intro:
D|------------------|
A|------------------|
F|------------------|
C|------------------|  x2
G|------------------|
C|-0-02-4-5-5-5-2-0-|

D|--------------------------|
A|--------------------------|
F|--------------------------|
C|--------------------------|  
G|--------------------------|
C|-0-02-4-5-5-5-2-7777-9999-|

D|------------------|
A|------------------|
F|------------------|
C|-0-02-4-5-5-5-2-0-|  x2
G|-0-02-4-5-5-5-2-0-|
C|-0-02-4-5-5-5-2-0-|

D|--------------------------|
A|--------------------------|
F|--------------------------|
C|-0-02-4-5-5-5-2-7777-9999-|
G|-0-02-4-5-5-5-2-7777-9999-|
C|-0-02-4-5-5-5-2-7777-9999-|

Solo Part:
D|----5~-|
A|-3~----|
F|-------|
C|-------|
G|-------|
C|-------|

D|----------------------------|
A|----------------------------|
F|----------11-12-12-12h11----|
C|-12-12-14----------------14-|  x2
G|----------------------------|
C|----------------------------|

D|-----------------------|
A|-------7-8-8-7-8---10~-|
F|-7-7-9-----------9-----|
C|-----------------------|  
G|-----------------------|
C|-----------------------|


Verse:
(Listen to the music for the rhythm)
D|----------------------------------------------|
A|----------------------------------------------|
F|----------------------------------------------|
C|-0x0x0x0x0x0x0x0x-0x-5-0x0x-5x-0x0x-5x-0x-5h7-|  x2
G|-0x0x0x0x0x0x0x0x-0x-5-0x0x-5x-0x0x-5x-0x-5h7-|
C|-0x0x0x0x0x0x0x0x-0x-5-0x0x-5x-0x0x-5x-0x-5h7-|

D|-------------------------------------------------|
A|-------------------------------------------------|
F|-------------------------------------------------|
C|-0x0x0x0x0x0x0x0x-0x-5-0x0x-5x-0x0x-5x-9999-7777-|
G|-0x0x0x0x0x0x0x0x-0x-5-0x0x-5x-0x0x-5x-9999-7777-|
C|-0x0x0x0x0x0x0x0x-0x-5-0x0x-5x-0x0x-5x-9999-7777-|

D|----------------------------------------------|
A|----------------------------------------------|
F|----------------------------------------------|
C|-0x0x0x0x0x0x0x0x-0x-5-0x0x-5x-0x0x-5x-0x-5h7-|  x2
G|-0x0x0x0x0x0x0x0x-0x-5-0x0x-5x-0x0x-5x-0x-5h7-|
C|-0x0x0x0x0x0x0x0x-0x-5-0x0x-5x-0x0x-5x-0x-5h7-|

D|-------------------------------------------------|
A|-------------------------------------------------|
F|-------------------------------------------------|
C|-0x0x0x0x0x0x0x0x-0x-5-0x0x-5x-0x0x-5x-9999-7777-|
G|-0x0x0x0x0x0x0x0x-0x-5-0x0x-5x-0x0x-5x-9999-7777-|
C|-0x0x0x0x0x0x0x0x-0x-5-0x0x-5x-0x0x-5x-9999-7777-|


Pre-Chorus:
D|-------------------------------------------|
A|-------------------------------------------|
F|-------------------------------------------|
C|-5555-5555-5555-5555-0x0x0x-555-0x0x0x-555-|
G|-5555-5555-5555-5555-0x0x0x-555-0x0x0x-555-|
C|-5555-5555-5555-5555-0x0x0x-555-0x0x0x-555-|

D|-----------------------------------------|
A|-----------------------------------------|
F|-----------------------------------------|
C|-5555-5555-5555-5555-7777-7777-7777-7777-|
G|-5555-5555-5555-5555-7777-7777-7777-7777-|
C|-5555-5555-5555-5555-7777-7777-7777-7777-|


Chorus:
D|------------------|
A|------------------|
F|------------------|
C|-0-02-4-5-5-5-2-0-|  x2
G|-0-02-4-5-5-5-2-0-|
C|-0-02-4-5-5-5-2-0-|

D|--------------------------|
A|--------------------------|
F|--------------------------|
C|-0-02-4-5-5-5-2-7777-9999-|
G|-0-02-4-5-5-5-2-7777-9999-|
C|-0-02-4-5-5-5-2-7777-9999-|

D|------------------|
A|------------------|
F|------------------|
C|-0-02-4-5-5-5-2-0-|  x2
G|-0-02-4-5-5-5-2-0-|
C|-0-02-4-5-5-5-2-0-|

D|--------------------------|
A|--------------------------|
F|--------------------------|
C|-0-02-4-5-5-5-2-7777-9999-|
G|-0-02-4-5-5-5-2-7777-9999-|
C|-0-02-4-5-5-5-2-7777-9999-|


Pre-Verse: 
D|----------------------------------------------|
A|----------------------------------------------|
F|----------------------------------------------|
C|-0x0x0x0x0x0x0x0x-0x-5-0x0x-5x-0x0x-5x-0x-5h7-|  x2
G|-0x0x0x0x0x0x0x0x-0x-5-0x0x-5x-0x0x-5x-0x-5h7-|
C|-0x0x0x0x0x0x0x0x-0x-5-0x0x-5x-0x0x-5x-0x-5h7-|

D|-------------------------------------------------|
A|-------------------------------------------------|
F|-------------------------------------------------|
C|-0x0x0x0x0x0x0x0x-0x-5-0x0x-5x-0x0x-5x-9999-7777-|
G|-0x0x0x0x0x0x0x0x-0x-5-0x0x-5x-0x0x-5x-9999-7777-|
C|-0x0x0x0x0x0x0x0x-0x-5-0x0x-5x-0x0x-5x-9999-7777-|


Verse 2:
D|----------------------------------------------|
A|----------------------------------------------|
F|----------------------------------------------|
C|-0x0x0x0x0x0x0x0x-0x-5-0x0x-5x-0x0x-5x-0x-5h7-|  x2
G|-0x0x0x0x0x0x0x0x-0x-5-0x0x-5x-0x0x-5x-0x-5h7-|
C|-0x0x0x0x0x0x0x0x-0x-5-0x0x-5x-0x0x-5x-0x-5h7-|

D|-------------------------------------------------|
A|-------------------------------------------------|
F|-------------------------------------------------|
C|-0x0x0x0x0x0x0x0x-0x-5-0x0x-5x-0x0x-5x-9999-7777-|
G|-0x0x0x0x0x0x0x0x-0x-5-0x0x-5x-0x0x-5x-9999-7777-|
C|-0x0x0x0x0x0x0x0x-0x-5-0x0x-5x-0x0x-5x-9999-7777-|

D|----------------------------------------------|
A|----------------------------------------------|
F|----------------------------------------------|
C|-0x0x0x0x0x0x0x0x-0x-5-0x0x-5x-0x0x-5x-0x-5h7-|  x2
G|-0x0x0x0x0x0x0x0x-0x-5-0x0x-5x-0x0x-5x-0x-5h7-|
C|-0x0x0x0x0x0x0x0x-0x-5-0x0x-5x-0x0x-5x-0x-5h7-|

D|-------------------------------------------------|
A|-------------------------------------------------|
F|-------------------------------------------------|
C|-0x0x0x0x0x0x0x0x-0x-5-0x0x-5x-0x0x-5x-9999-7777-|
G|-0x0x0x0x0x0x0x0x-0x-5-0x0x-5x-0x0x-5x-9999-7777-|
C|-0x0x0x0x0x0x0x0x-0x-5-0x0x-5x-0x0x-5x-9999-7777-|


Pre-Chorus:
D|-------------------------------------------|
A|-------------------------------------------|
F|-------------------------------------------|
C|-5555-5555-5555-5555-0x0x0x-555-0x0x0x-555-|
G|-5555-5555-5555-5555-0x0x0x-555-0x0x0x-555-|
C|-5555-5555-5555-5555-0x0x0x-555-0x0x0x-555-|

D|-----------------------------------------|
A|-----------------------------------------|
F|-----------------------------------------|
C|-5555-5555-5555-5555-7777-7777-7777-7777-|
G|-5555-5555-5555-5555-7777-7777-7777-7777-|
C|-5555-5555-5555-5555-7777-7777-7777-7777-|


Chorus 2:
D|------------------|
A|------------------|
F|------------------|
C|-0-02-4-5-5-5-2-0-|  x2
G|-0-02-4-5-5-5-2-0-|
C|-0-02-4-5-5-5-2-0-|

D|--------------------------|
A|--------------------------|
F|--------------------------|
C|-0-02-4-5-5-5-2-7777-9999-|
G|-0-02-4-5-5-5-2-7777-9999-|
C|-0-02-4-5-5-5-2-7777-9999-|

D|------------------|
A|------------------|
F|------------------|
C|-0-02-4-5-5-5-2-0-|  x2
G|-0-02-4-5-5-5-2-0-|
C|-0-02-4-5-5-5-2-0-|

D|--------------------------|
A|--------------------------|
F|--------------------------|
C|-0-02-4-5-5-5-2-7777-9999-|
G|-0-02-4-5-5-5-2-7777-9999-|
C|-0-02-4-5-5-5-2-7777-9999-|


Bridge:
D|------------------|
A|------------------|
F|------------------|
C|-0-02-4-5-5-5-2-0-|  x2
G|-0-02-4-5-5-5-2-0-|
C|-0-02-4-5-5-5-2-0-|

D|--------------------------|
A|--------------------------|
F|--------------------------|
C|-0-02-4-5-5-5-2-7777-9999-|
G|-0-02-4-5-5-5-2-7777-9999-|
C|-0-02-4-5-5-5-2-7777-9999-|

D|------------------|
A|------------------|
F|------------------|
C|-0-02-4-5-5-5-2-0-|  x2
G|-0-02-4-5-5-5-2-0-|
C|-0-02-4-5-5-5-2-0-|

D|--------------------------|
A|--------------------------|
F|--------------------------|
C|-0-02-4-5-5-5-2-7777-9999-|
G|-0-02-4-5-5-5-2-7777-9999-|
C|-0-02-4-5-5-5-2-7777-9999-|

Solo Part:
D|----------------------------------7------|
A|---------7-8-8------------7-8-8-----10b~-|
F|-\-7-7-9-------9-7--7-7-9-------9--------|
C|-----------------------------------------|
G|-----------------------------------------|
C|-----------------------------------------|

D|-----------------15-14--------17-15-14-----|
A|-------7-8-8-8---------15--------------15~-|
F|-7-7-9---------9----------14~--------------|
C|-------------------------------------------|
G|-------------------------------------------|
C|-------------------------------------------|

(I'm not sure about the solo for this part.)
D|------10~-8~----------3b-3-1-0-1-5h3-1-3~-|
A|-5b-3--------5-5b-3b~---------------------|
F|------------------------------------------|
C|------------------------------------------|
G|------------------------------------------|
C|------------------------------------------|

D|-5---3---2------------|
A|---3---3---3-5h3-2-3~-|
F|----------------------|
C|----------------------|
G|----------------------|
C|----------------------|


Pre-Chorus:
D|------------------|
A|------------------|
F|------------------|
C|------------------|  x2
G|------------------|
C|-0-02-4-5-5-5-2-0-|

D|--------------------------|
A|--------------------------|
F|--------------------------|
C|----------------7777-9999-|  
G|----------------7777-9999-|
C|-0-02-4-5-5-5-2-7777-9999-|

Solo Part:
D|------5~-|
A|-3~---3~-|
F|---------|
C|---------|
G|---------|
C|---------|


Final Chorus:
D|------------------|
A|------------------|
F|------------------|
C|-0-02-4-5-5-5-2-0-|  x2
G|-0-02-4-5-5-5-2-0-|
C|-0-02-4-5-5-5-2-0-|

D|--------------------------|
A|--------------------------|
F|--------------------------|
C|-0-02-4-5-5-5-2-7777-9999-|
G|-0-02-4-5-5-5-2-7777-9999-|
C|-0-02-4-5-5-5-2-7777-9999-|

D|------------------|
A|------------------|
F|------------------|
C|-0-02-4-5-5-5-2-0-|  x2
G|-0-02-4-5-5-5-2-0-|
C|-0-02-4-5-5-5-2-0-|

D|--------------------------|
A|--------------------------|
F|--------------------------|
C|-0-02-4-5-5-5-2-7777-9999-|
G|-0-02-4-5-5-5-2-7777-9999-|
C|-0-02-4-5-5-5-2-7777-9999-|


Outro:
D|------------------|
A|------------------|
F|------------------|
C|------------------|  x2
G|------------------|
C|-0-02-4-5-5-5-2-0-|

D|-----------------------------|
A|-----------------------------|
F|-----------------------------|
C|----------------7777-9999-0~-|  
G|----------------7777-9999-0~-|
C|-0-02-4-5-5-5-2-7777-9999-0~-|

Solo Part:
D|-----2~--5~--2~--|
A|-3~--3~--3~--3~--|
F|-----------------|
C|-----------------|
G|-----------------|
C|-----------------|

************************************

| /   slide up
| \   slide down
| h   hammer-on
| ~   vibrato
| x   Mute note
| b   Bend

************************************

If you have any comments/corrections, please say in either the comments box or leave me 
a message.
Good luck and enjoy!





Comments


Popular Wednesday 13 tabs & chords
Bullet Name Christ Bass Tabs
Elect Death For President Bass Tabs
Faith In The Devil Bass Tabs
God Is A Lie 3 Bass Tabs
God Is A Lie 4 Bass Tabs
Rot For Me Bass Tabs
Bad At Being Human Tabs
God Is A Lie 2 Tabs
Mftw Tabs
Runnin Down A Dream Tabs


Song lyrics



↑ Back to top | Tablatures and chords are parodies/interpretations of the original songs. You may use it for private study, scholarship, research or language learning purposes only
© 2014 AZChords.com Contact us | Privacy policy | DMCA | Add/correct tabs | Request tabs | Top 50 tabs