>
 >
I Love To Say Fuck

I Love To Say Fuck Guitar Tabs

Wednesday 13 - I Love To Say Fuck chords, tabs, tablatures, lyrics

Guitar lessons | Add/correct | Request | Top 50 tabs Artists:  A B C D E F G H I J K L M N O P Q R S T U V W X Y Z 0-9

I Love To Say Fuck Guitar Tabs – Wednesday 13

CD, Sheet music, Poster

Do you like I Love To Say Fuck? Share with your friends now
Bass TabsTabs
-----------------------------------------------------------------------------
                       Wednesday 13 - I Love to Say Fuck
-----------------------------------------------------------------------------


Tuning: CGCFAD

I'm not sure about the solo...

Intro:
D|----------|
A|----------|
F|----------|
C|-9x9x9x9x-|
G|-9x9x9x9x-|
C|-9x9x9x9x-|

Solo Part:
D|----------|
A|----------|
F|-6x6x6x6x-|
C|----------|
G|----------|
C|----------|

Then...
D|-------------------|
A|-------------------|
F|-------------------|
C|-4444-7777-44-4x4x-|  x4
G|-4444-7777-44-4x4x-|
C|-4444-7777-44-4x4x-|

Solo Part:
D|-----------------------|
A|-7777-10101010-77-7x7x-| <- These are 10's
F|-----------------------|
C|-----------------------|  x4
G|-----------------------|
C|-----------------------|


Verse:
D|------------------------|
A|------------------------|
F|------------------------|
C|-4x4x4x4x-7x7x7x7x-4x4x-|  x8
G|-4x4x4x4x-7x7x7x7x-4x4x-|
C|-4x4x4x4x-7x7x7x7x-4x4x-|

Solo Part:
D|----------------------------|
A|-7x7x7x7x-10x10x10x10x-7x7x-|
F|----------------------------|
C|----------------------------|  x8
G|----------------------------|
C|----------------------------|

Then...
D|-------------------------------------|
A|-------------------------------------|
F|-------------------------------------|
C|-4x4x4x4x-7x7x7x7x-4x4x4x4x-4x6x7x8x-|
G|-4x4x4x4x-7x7x7x7x-4x4x4x4x-4x6x7x8x-|
C|-4x4x4x4x-7x7x7x7x-4x4x4x4x-4x6x7x8x-|

Solo Part:
D|-------------------------------------------|
A|-7x7x7x7x-10x10x10x10x-7x7x7x7x-7x9x10x11x-|
F|-------------------------------------------|
C|-------------------------------------------|
G|-------------------------------------------|
C|-------------------------------------------|


Pre-Chorus:
D|----------------------------------------|
A|----------------------------------------|
F|----------------------------------------|
C|-9999-9999-4444-4447-9999-9999-11111111-|
G|-9999-9999-4444-4447-9999-9999-11111111-|  <- These are 11's
C|-9999-9999-4444-4447-9999-9999-11111111-|

Solo Part:
D|---------------------------------------------------------|
A|-12121212-12121212-7777-77710-12121212-12121212-13131313-| <- These are
F|---------------------------------------------------------|   12's, a 10
C|---------------------------------------------------------|   and 13's
G|---------------------------------------------------------|
C|---------------------------------------------------------|


Chorus:
D|-------------------|
A|-------------------|
F|-------------------|
C|-4444-7777-44-4x4x-|  x4
G|-4444-7777-44-4x4x-|
C|-4444-7777-44-4x4x-|


Verse 2:
D|------------------------|
A|------------------------|
F|------------------------|
C|-4x4x4x4x-7x7x7x7x-4x4x-|  x8
G|-4x4x4x4x-7x7x7x7x-4x4x-|
C|-4x4x4x4x-7x7x7x7x-4x4x-|

Solo Part:
D|----------------------------|
A|-7x7x7x7x-10x10x10x10x-7x7x-|
F|----------------------------|
C|----------------------------|  x8
G|----------------------------|
C|----------------------------|

Then...
D|-------------------------------------|
A|-------------------------------------|
F|-------------------------------------|
C|-4x4x4x4x-7x7x7x7x-4x4x4x4x-4x6x7x8x-|
G|-4x4x4x4x-7x7x7x7x-4x4x4x4x-4x6x7x8x-|
C|-4x4x4x4x-7x7x7x7x-4x4x4x4x-4x6x7x8x-|

Solo Part:
D|-------------------------------------------|
A|-7x7x7x7x-10x10x10x10x-7x7x7x7x-7x9x10x11x-|
F|-------------------------------------------|
C|-------------------------------------------|
G|-------------------------------------------|
C|-------------------------------------------|


Pre-Chorus:
D|----------------------------------------|
A|----------------------------------------|
F|----------------------------------------|
C|-9999-9999-4444-4447-9999-9999-11111111-|
G|-9999-9999-4444-4447-9999-9999-11111111-|  <- These are 11's
C|-9999-9999-4444-4447-9999-9999-11111111-|

Solo Part:
D|---------------------------------------------------------|
A|-12121212-12121212-7777-77710-12121212-12121212-13131313-| <- These are
F|---------------------------------------------------------|   12's, a 10
C|---------------------------------------------------------|   and 13's
G|---------------------------------------------------------|
C|---------------------------------------------------------|


Chorus 2:
D|-------------------|
A|-------------------|
F|-------------------|
C|-4444-7777-44-4x4x-|  x4
G|-4444-7777-44-4x4x-|
C|-4444-7777-44-4x4x-|


Bridge:
D|---------------------|
A|---------------------|
F|---------------------|
C|-4444-7777-4444-4444-|  x4
G|-4444-7777-4444-4444-|
C|-4444-7777-4444-4444-|

D|-------------|
A|-------------|
F|-------------|
C|-4~-4~-4~-4~-|
G|-4~-4~-4~-4~-|
C|-4~-4~-4~-4~-|

Solo Part:
D|-----------------------------------------------------------------|
A|-/7b-7h9h10-7h9h10-7h9h10-12-14~-14-12-10-7h9h10-7b~-5-0---------|
F|---------------------------------------------------------6-4-----|
C|-------------------------------------------------------------7-6-|
G|-----------------------------------------------------------------|
C|-----------------------------------------------------------------|

D|-------------------------------------------------|
A|-7~-10-9-7---7-7~-5-------------10-9-7-----------|
F|-----------9--------4-6-4---4-6--------9-7-6-4-2-|
C|--------------------------7----------------------|
G|-------------------------------------------------|
C|-------------------------------------------------|

D|---------------------------------------------------|
A|-------------------------14-13-12------------------|
F|-------------------10h11----------14-13-11-9-9/11~-|
C|-4b~-2h4b~-4h7h4b~---------------------------------|
G|---------------------------------------------------|
C|---------------------------------------------------|


Verse 3:
D|------------------------|
A|------------------------|
F|------------------------|
C|-4x4x4x4x-7x7x7x7x-4x4x-|  x4
G|-4x4x4x4x-7x7x7x7x-4x4x-|
C|-4x4x4x4x-7x7x7x7x-4x4x-|

D|------------------------|
A|------------------------|
F|------------------------|
C|-4x4x4x4x-7x7x7x7x-4x4x-|  x4
G|-4x4x4x4x-7x7x7x7x-4x4x-|
C|-4x4x4x4x-7x7x7x7x-4x4x-|

Solo Part:
D|----------------------------|
A|-7x7x7x7x-10x10x10x10x-7x7x-|
F|----------------------------|
C|----------------------------|  x4
G|----------------------------|
C|----------------------------|

Then...
D|-------------------------------------|
A|-------------------------------------|
F|-------------------------------------|
C|-4x4x4x4x-7x7x7x7x-4x4x4x4x-4x6x7x8x-|
G|-4x4x4x4x-7x7x7x7x-4x4x4x4x-4x6x7x8x-|
C|-4x4x4x4x-7x7x7x7x-4x4x4x4x-4x6x7x8x-|

Solo Part:
D|-------------------------------------------|
A|-7x7x7x7x-10x10x10x10x-7x7x7x7x-7x9x10x11x-|
F|-------------------------------------------|
C|-------------------------------------------|
G|-------------------------------------------|
C|-------------------------------------------|


Pre-Chorus:
D|----------------------------------------|
A|----------------------------------------|
F|----------------------------------------|
C|-9999-9999-4444-4447-9999-9999-11111111-|
G|-9999-9999-4444-4447-9999-9999-11111111-|  <- These are 11's
C|-9999-9999-4444-4447-9999-9999-11111111-|

Solo Part:
D|---------------------------------------------------------|
A|-12121212-12121212-7777-77710-12121212-12121212-13131313-| <- These are
F|---------------------------------------------------------|   12's, a 10
C|---------------------------------------------------------|   and 13's
G|---------------------------------------------------------|
C|---------------------------------------------------------|


Chorus 3:
D|-------------------|
A|-------------------|
F|-------------------|
C|-4444-7777-44-4x4x-|  x4
G|-4444-7777-44-4x4x-|
C|-4444-7777-44-4x4x-|

D|---------------------|
A|---------------------|
F|---------------------|
C|-4444-7777-4444-4444-|  x4
G|-4444-7777-4444-4444-|
C|-4444-7777-4444-4444-|

Then...
D|-------------------|
A|-------------------|
F|-------------------|
C|-4444-797-4444-797-|  x16
G|-4444-797-4444-797-|
C|-4444-797-4444-797-|

D|------7------7-|
A|-7-10---7-10---|
F|---------------|
C|---------------|  x16
G|---------------|
C|---------------|

End on:
D|----|
A|----|
F|----|
C|-4~-|
G|-4~-|
C|-4~-|


************************************

| /   slide up
| \   slide down
| h   hammer-on
| ~   vibrato
| x   Mute note
| b   Bend

************************************

If you have any comments/corrections, please say in the comments box or leave me a 
message. Good luck and enjoy!





Comments


Popular Wednesday 13 tabs & chords
Curse Of Me Bass Tabs
Hail Ming Bass Tabs
Mftw Bass Tabs
No Rabbit In The Hat Bass Tabs
No Rabbit In The Hat 2 Bass Tabs
Faith In The Devil Tabs
Mister Motherfucker 2012 Tabs
Til Death Do Us Party Tabs
Too Much Blood Tabs
We All Die Tabs


Song lyrics



↑ Back to top | Tablatures and chords are parodies/interpretations of the original songs. You may use it for private study, scholarship, research or language learning purposes only
© 2014 AZChords.com Contact us | Privacy policy | DMCA | Add/correct tabs | Request tabs | Top 50 tabs