» » »

Halloween 13-13 Tabs (ver.1)

Artists:  A B C D E F G H I J K L M N O P Q R S T U V W X Y Z # 

Halloween 13-13 Tabs (ver.1)

Wednesday 13
Rating:
0/5 (0 votes)

Hard to play? Try these video lessons and learn fast.
                -----------------------------------------------------------------------------
                    Wednesday 13 - Halloween 13-13
-----------------------------------------------------------------------------


Tuning: CGCFAD

Intro:
D|-------------------------------|
A|-------------------------------|
F|-------------------------------|
C|-4444-77-66-7-6-4444-77-66-7-6-|   x2
G|-4444-77-66-7-6-4444-77-66-7-6-|
C|-4444-77-66-7-6-4444-77-66-7-6-|

Solo Part:
D|-------------------------------------|
A|-7-7~-77-7-7~-77-10-10~-1010-99-10-9-|
F|-------------------------------------|
C|-------------------------------------|  x4
G|-------------------------------------|
C|-------------------------------------|


Verse:
D|---------------------------|
A|---------------------------|
F|---------------------------|
C|-4x4x-4x4x-7x7x-6x6x-7x-6x-|  x4
G|-4x4x-4x4x-7x7x-6x6x-7x-6x-|
C|-4x4x-4x4x-7x7x-6x6x-7x-6x-|

Solo Part:
(I think a keyboard instrument plays this, but here it is anyway)
D|----------------|
A|-7~-10~-9~-10-9-|
F|----------------|
C|----------------|  x4
G|----------------|
C|----------------|


Pre-Chorus:
D|-----------------------------------------|
A|-----------------------------------------|
F|-----------------------------------------|
C|-22~-22~-44-77-66-44-22~-22~-44-77-66-44-|
G|-22~-22~-44-77-66-44-22~-22~-44-77-66-44-|
C|-22~-22~-44-77-66-44-22~-22~-44-77-66-44-|

(For the last part, you can repeat the chord on the 11th fret. I think
the falling scale is played by the bass. I've changed it later on.)
D|-----------------------------------------------|
A|-----------------------------------------------|
F|-----------------------------------------------|
C|-22~-22~-44-77-66-44-00~-00-0~-11-11~----------|
G|-22~-22~-44-77-66-44-00~-00-0~-11-11~----------|
C|-22~-22~-44-77-66-44-00~-00-0~-11-11~-11-9-7-6-|

Solo Part:
D|---------------------------------------------|
A|-\----7-10-9-7----7-10-9-7----7-10-9-7-------|
F|---9~----------9~----------9~----------7~-6~-|
C|---------------------------------------------|
G|---------------------------------------------|
C|---------------------------------------------|


Chorus:
D|-------------------------------|
A|-------------------------------|
F|-------------------------------|
C|-4444-77-66-7-6-4444-77-66-7-6-|   x3
G|-4444-77-66-7-6-4444-77-66-7-6-|
C|-4444-77-66-7-6-4444-77-66-7-6-|

Solo Part:
D|-------------------------------------|
A|-7-7~-77-7-7~-77-10-10~-1010-99-10-9-|
F|-------------------------------------|
C|-------------------------------------|  x6
G|-------------------------------------|
C|-------------------------------------|


Verse:
D|---------------------------|
A|---------------------------|
F|---------------------------|
C|-4x4x-4x4x-7x7x-6x6x-7x-6x-|  x4
G|-4x4x-4x4x-7x7x-6x6x-7x-6x-|
C|-4x4x-4x4x-7x7x-6x6x-7x-6x-|

Solo Part:
D|----------------|
A|-7~-10~-9~-10-9-|
F|----------------|
C|----------------|  x4
G|----------------|
C|----------------|


Pre-Chorus:
D|-----------------------------------------|
A|-----------------------------------------|
F|-----------------------------------------|
C|-22~-22~-44-77-66-44-22~-22~-44-77-66-44-|
G|-22~-22~-44-77-66-44-22~-22~-44-77-66-44-|
C|-22~-22~-44-77-66-44-22~-22~-44-77-66-44-|

D|---------------------------------------------|
A|---------------------------------------------|
F|---------------------------------------------|
C|-22~-22~-44-77-66-44-00~-00-0~-11-11~-11-11~-|
G|-22~-22~-44-77-66-44-00~-00-0~-11-11~-11-11~-|
C|-22~-22~-44-77-66-44-00~-00-0~-11-11~-11-11~-|

Solo Part:
D|---------------------------------------------|
A|-\----7-10-9-7----7-10-9-7----7-10-9-7-------|
F|---9~----------9~----------9~----------7~-6~-|
C|---------------------------------------------|
G|---------------------------------------------|
C|---------------------------------------------|


Chorus:
D|-------------------------------|
A|-------------------------------|
F|-------------------------------|
C|-4444-77-66-7-6-4444-77-66-7-6-|   x2
G|-4444-77-66-7-6-4444-77-66-7-6-|
C|-4444-77-66-7-6-4444-77-66-7-6-|

Solo Part:
D|-------------------------------------|
A|-7-7~-77-7-7~-77-10-10~-1010-99-10-9-|
F|-------------------------------------|
C|-------------------------------------|  x4
G|-------------------------------------|
C|-------------------------------------|


Bridge:
D|-------------------------------|
A|-------------------------------|
F|-------------------------------|
C|-4444-77-66-7-6-4444-77-66-7-6-|   x4
G|-4444-77-66-7-6-4444-77-66-7-6-|
C|-4444-77-66-7-6-4444-77-66-7-6-|

Solo Part:
D|-9--9-9---9--9-9-----9--9-9--------9--9-9----9--9-9------------------|
A|-10-9-7-7-10-9-7-5h7-10-9-7-5h7~-7-10-9-7--7-10-9-7---------------2~-|
F|----------------------------------------------------4-6-4-2-4-----2~-|
C|--------------------------------------------------------------4-4----|
G|---------------------------------------------------------------------|
C|---------------------------------------------------------------------|

(Not sure about the last bit of this solo)
D|----------------------9--9-9---9--9-9-----------------------------|
A|-7777-7777-5555-444-5-10-9-7-7-10-9-7-5h7-------------------------|
F|-xxxx-xxxx-xxxx-xxx-x---------------------------------------------|
C|-4444-4444-2222-111-2---------------------10h11~-10---------------|
G|----------------------------------------------------12-11-12-11-9-|
C|------------------------------------------------------------------|


Pre-Chorus:
D|-----------------------------------------|
A|-----------------------------------------|
F|-----------------------------------------|
C|-22~-22~-44-77-66-44-22~-22~-44-77-66-44-|
G|-22~-22~-44-77-66-44-22~-22~-44-77-66-44-|
C|-22~-22~-44-77-66-44-22~-22~-44-77-66-44-|

D|---------------------------------------------|
A|---------------------------------------------|
F|---------------------------------------------|
C|-22~-22~-44-77-66-44-00~-00-0~-11-11~-11-11~-|
G|-22~-22~-44-77-66-44-00~-00-0~-11-11~-11-11~-|
C|-22~-22~-44-77-66-44-00~-00-0~-11-11~-11-11~-|

Solo Part:
D|-------------------------------------------|
A|----7-10-9-7----7-10-9-7----7-10-9-7-------|
F|-9~----------9~----------9~----------7~-6~-|
C|-------------------------------------------|
G|-------------------------------------------|
C|-------------------------------------------|


Final Chorus:
D|-------------------------------|
A|-------------------------------|
F|-------------------------------|
C|-4444-77-66-7-6-4444-77-66-7-6-|   x4
G|-4444-77-66-7-6-4444-77-66-7-6-|
C|-4444-77-66-7-6-4444-77-66-7-6-|

Solo Part:
D|-------------------------------------|
A|-7-7~-77-7-7~-77-10-10~-1010-99-10-9-|
F|-------------------------------------|
C|-------------------------------------|  x8
G|-------------------------------------|
C|-------------------------------------|

End on:
D|----|
A|----|
F|----|
C|-4~-|
G|-4~-|
C|-4~-|

Solo Part:
D|----|
A|-7~-|
F|----|
C|----|
G|----|
C|----|

************************************

| /   slide up
| \   slide down
| h   hammer-on
| ~   vibrato
| +   harmonic
| x   Mute note
| b   Bend

************************************

If you have any comments/corrections, please say in either the comments box 
or leave me a message. Good luck and enjoy!
            
Hard to play? Try these video lessons and learn fast. | Correct




comments powered by Disqus
↑ Back to top | Tablatures and chords are parodies/interpretations of the original songs. You may use it for private study, scholarship, research or language learning purposes only