» » »

Wednesday 13, Haddonfield Tabs (ver.3)

Artists:  A B C D E F G H I J K L M N O P Q R S T U V W X Y Z # 

Haddonfield Tabs (ver.3)

Wednesday 13 Tabs
Rating:
5/5 (1 vote)
Haddonfield lessons Tabs too difficult? Try these video lessons and learn fast
                
Intro / Mainriff
E-------------------------------------------------------------------------|
B-------------------------------------------------------------------------|
G-----------------------------------7-7-7-7-7-----------------------------|
D-4-4-4-4-4---7-7-7-7-7--2-2-2-2-2--7-7-7-7-7-----------------------------|
A-4-4-4-4-4---7-7-7-7-7--2-2-2-2-2--5-5-5-5-5-----------------------------|
E-2-2-2-2-2---5-5-5-5-5--0-0-0-0-0----------------------------------------|



-----------------------------------------------------------------------------|
-----------------------------------------------------------------------------|
-----------------------------------7~----------------------------------------|
--4-4-4-4-4--7-7-7-7-7--2-2-2-2-2--7~----------------------------------------|
--4-4-4-4-4--7-7-7-7-7--2-2-2-2-2--5~----------------------------------------|
--2-2-2-2-2--5-5-5-5-5--0-0-0-0-0--------------------------------------------|


Guitar 2
-----------------------------------------------------------------------------|
-----------------------------------------------------------------------------|
-----------------------------------------------------------------------------|
--4~---7~--3~--0~------------------------------------------------------------|
-----------------------------------------------------------------------------|
-----------------------------------------------------------------------------|

Verse
e-------------------------------------------------------------------------|
b-------------------------------------------------------------------------|
g-----------------------------------------------7-7-7-7-7-----------------|
d-4-4-4-4-4---7-7-7-7-7--2-2-2-2-2--7-7-7-7-7-----------------------------|
a-4-4-4-4-4---7-7-7-7-7--2-2-2-2-2--5-5-5-5-5-----------------------------|
e-2-2-2-2-2---5-5-5-5-5--0-0-0-0-0----------------------------------------|


-----------------------------------------------------------------------------|
-----------------------------------------------------------------------------|
-----------------------------------7~----------------------------------------|
--4-4-4-4-4--7-7-7-7-7--2-2-2-2-2--7~----------------------------------------|
--4-4-4-4-4--7-7-7-7-7--2-2-2-2-2--5~----------------------------------------|
--2-2-2-2-2--5-5-5-5-5--0-0-0-0-0--------------------------------------------|

Guitar 2
-----------------------------------------------------------------------------|
-----------------------------------------------------------------------------|
-----------------------------------------------------------------------------|
--6h7--7-7-7---6h7--7-7-7---7p6--5--2--0-0-----------------------------------|
-----------------------------------------------------------------------------|
-----------------------------------------------------------------------------|

Chorus
-----------------------------------------------------------------------------|
-----------------------------------------------------------------------------|
-7-7-7-7-7-7-7-7-7-7-7-7-7-7-7-7---------------------------------------------|
-7-7-7-7-7-7-7-7-7-7-7-7-7-7-7-7--4-4-4-4-4-4-4-4-4-4-4-4-4-4-4-4------------|
-5-5-5-5-5-5-5-5-5-5-5-5-5-5-5-5--4-4-4-4-4-4-4-4-4-4-4-4-4-4-4-4------------|
----------------------------------2-2-2-2-2-2-2-2-2-2-2-2-2-2-2-2------------|


-----------------------------------------------------------------------------|
-----------------------------------------------------------------------------|
--7-7-7-7-7-7-7-7--6-6-6-6-6-6-6-6-------------------------------------------|
--7-7-7-7-7-7-7-7--6-6-6-6-6-6-6-6--4-4-4-4--7-7-7-7-------------------------|
--5-5-5-5-5-5-5-5--4-4-4-4-4-4-4-4--4-4-4-4--7-7-7-7-------------------------|
------------------------------------2-2-2-2--5-5-5-5-------------------------|

Guitar 2
--------------------------------------------------------------------|
--------------------------------------------------------------------|
--------------------------------------------------------------------|
-7-7-7-7-7-6-5--7-7-7-7-7-7-6-5--2-2-2-2-2--2-1---------------------|
------------------------------------------------4-------------------|
--------------------------------------------------------------------|

-------------------------------------------------------------------|
-------------------------------------------------------------------|
-------------------------------------------------------------------|
-2-2-2-2-2--2-1----7-7-7-7-7-6-5--6-6-6-7-7-7-9-9-9----------------|
-----------------4-------------------------------------------------|
-------------------------------------------------------------------|

Solo
-----------------------------------------------------------------------------|
-----------------------------------------------------------------------------|
-----------------------------------------------------------------------------|
-----------------------------------------------------------------------------|
--9--9-11-12--11-12-14--14-12-16-14-12-15-14-12-9--9-11-7-9-5-4--------------|
-----------------------------------------------------------------------------|

End
-----------------------------------------------------------------------------|
-----------------------------------------------------------------------------|
--------------7--------------------7--6--------------------------------------|
--4---7---2---7---4---7---2--------7--6--------------------------------------|
--4---7---2---5---4---7---2--------5--4--------------------------------------|
--2---5---0-------2---5---0--------------------------------------------------|
            
Submit corrections

comments powered by Disqus
↑ Back to top | Wednesday 13 Tabs for Haddonfield. Lyrics for acoustic guitar and electric guitar. Tablatures and chords are parodies/interpretations of the original songs. You may use it for private study, scholarship, research or language learning purposes only