» » »

God Is A Lie Tabs (ver.2)

Artists:  A B C D E F G H I J K L M N O P Q R S T U V W X Y Z # 

God Is A Lie Tabs (ver.2)

Wednesday 13
Rating:
4/5 (1 vote)

Tabs too difficult? Try these video lessons and learn fast.
                Here is God is a lie solo in a little diffrent tone for standard tuning.

The rytme guitar play still, in the hole solo:

e:--------------------------------------------------------|
B:--------------------------------------------------------|
G:--------------------------------------------------------|
D:------------------------------5-5-5-5-5-5---------------|
A:--7-7-7-7-7-7--3-3-3-3-3-3-3--3-3-3-3-3-3--5-5-5-5-5----|
E:--5-5-5-5-5-5--1-1-1-1-1-1-1---------------3-3-3-3-3----|

And the lead guitar take it away whit:

e:------------------------------------------------------|
B:------------------------------------------------------|
G:---------------------12-------------------------------|
D:--12b-12b-12b-12b-12b--12--10-9-7--7-10-10-12-12-14---|
A:------------------------------------------------------|
E:------------------------------------------------------|

e:------------------------------------------------------|
B:------------------------------------------------------|
G:--------12-14--16b-16-16-16-16-16-16-16-14------------|
D:--14-14-----------------------------------16-16-14----|
A:------------------------------------------------------|
E:------------------------------------------------------|

Than the last tones can't listen to what it is.
            
Tabs too difficult? Try these video lessons and learn fast.




comments powered by Disqus
↑ Back to top | Tablatures and chords are parodies/interpretations of the original songs. You may use it for private study, scholarship, research or language learning purposes only