>
 >
Gimme Gimme Bloodshed 1

Gimme Gimme Bloodshed 1 Guitar Tabs

Wednesday 13 - Gimme Gimme Bloodshed 1 chords, tabs, tablatures, lyrics

Guitar lessons | Add/correct | Request | Top 50 tabs Artists:  A B C D E F G H I J K L M N O P Q R S T U V W X Y Z 0-9

Gimme Gimme Bloodshed 1 Guitar Tabs – Wednesday 13

CD, Sheet music, Poster

Do you like Gimme Gimme Bloodshed 1? Share with your friends now
Bass TabsBass Tabs v2TabsTabs v2

GIMME GIMME BLOODSHED
As recorded by Wednesday 13
(From the 2008 Album SKELETONS)

        

Words and Music by Wednesday 13

Gtr I (C G C F A D) - 'Rhythm'
Gtr II (C G C F A D) - 'Lead'

 Intro
  Q=205
 4/4
  Gtrs I, II
  Wx2          E E E E Q  Q    E E E E Q  Q    E E E E Q  Q    E E Q  E E E E
|------------|---------------|---------------|---------------|-----------------|
|------------|---------------|---------------|---------------|-----------------|
|------------|---------------|---------------|---------------|----------3-3-3--|
|------------|-2-2-2-2-2--0--|-2-2-2-2-2--5--|-2-2-2-2-2--0--|-2-2-2--x-3-3-3--|
|------------|-2-2-2-2-2--0--|-2-2-2-2-2--5--|-2-2-2-2-2--0--|-2-2-2--x-1-1-1--|
|------------|-2-2-2-2-2--0--|-2-2-2-2-2--5--|-2-2-2-2-2--0--|-2-2-2--x--------|


  E E E E Q  Q    E E E E Q  Q    E E E E Q  Q    E E Q  E E E E
|---------------|---------------|---------------|-----------------||
|---------------|---------------|---------------|-----------------||
|---------------|---------------|---------------|----------3-3-3--||
|-2-2-2-2-2--0--|-2-2-2-2-2--5--|-2-2-2-2-2--0--|-2-2-2--x-3-3-3--||
|-2-2-2-2-2--0--|-2-2-2-2-2--5--|-2-2-2-2-2--0--|-2-2-2--x-1-1-1--||
|-2-2-2-2-2--0--|-2-2-2-2-2--5--|-2-2-2-2-2--0--|-2-2-2--x--------||


 Verse
  Gtr I
  E E E E E E E E   E E E E E E E E   E E E E E E E E   E E E E E E E E
|-----------------|-----------------|-----------------|------------------|
|-----------------|-----------------|-----------------|------------------|
|-----------------|-----------------|-----------------|------------------|
|-----------------|-----------------|-----------------|------------------|
|-----------------|-----------------|-----------------|------------------|
|-2-2-2-2-2-2-2-2-|-2-2-2-2-2-2-2-2-|-2-2-2-2-2-2-2-2-|-2-2-2-2-2-2-2-2--|


  E E E E E E E E   E E E E E E E E   E E E E E E E E   E E E E E E E E
|-----------------|-----------------|-----------------|------------------|
|-----------------|-----------------|-----------------|------------------|
|-----------------|-----------------|-----------------|------------------|
|-----------------|-----------------|-----------------|------------------|
|-----------------|-----------------|-----------------|------------------|
|-5-5-5-5-5-5-5-5-|-5-5-5-5-5-5-5-5-|-7-7-7-7-7-7-7-7-|-7-7-7-7-7-7-7-7--|


  E E E E E E E E   E E E E E E E E   E E E E E E E E   E E E E E E E E
|-----------------|-----------------|-----------------|------------------|
|-----------------|-----------------|-----------------|------------------|
|-----------------|-----------------|-----------------|------------------|
|-----------------|-----------------|-----------------|------------------|
|-----------------|-----------------|-----------------|------------------|
|-2-2-2-2-2-2-2-2-|-2-2-2-2-2-2-2-2-|-2-2-2-2-2-2-2-2-|-2-2-2-2-2-2-2-2--|
|
| Gtr II
| E E E E E E E E   E E E E E E E E   E E E E E E E E   E E E E E E E E
|-----------------|-----------------|-----------------|------------------|
|-----------------|-----------------|-----------------|------------------|
|-----------------|-----------------|-----------------|------------------|
|-2-2-2-2-2-2-2-2-|-2-2-2-2-2-2-2-2-|-2-2-2-2-2-2-2-2-|-2-2-2-2-2-2-2-2--|
|-----------------|-----------------|-----------------|------------------|
|-----------------|-----------------|-----------------|------------------|


  E E E E E E E E   E E E E E E E E   E E E E E E E E   E Q  E Q  Q
|-----------------|-----------------|-----------------|---------------||
|-----------------|-----------------|-----------------|---------------||
|-----------------|-----------------|-----------------|---------------||
|-----------------|-----------------|-----------------|---------------||
|-----------------|-----------------|-----------------|---7--7-7--7---||
|-5-5-5-5-5-5-5-5-|-5-5-5-5-5-5-5-5-|-7-7-7-7-7-7-7-7-|-7-7--7-7--7---||
|
| E E E E E E E E   E E E E E E E E   E E E E E E E E   E Q  E Q  Q
|-----------------|-----------------|-----------------|---------------||
|-----------------|-----------------|-----------------|---------------||
|-----------------|-----------------|-----------------|---------------||
|-5-5-5-5-5-5-5-5-|-5-5-5-5-5-5-5-5-|-7-7-7-7-7-7-7-7-|-7-------------||
|-----------------|-----------------|-----------------|---7--7-7--7---||
|-----------------|-----------------|-----------------|---7--7-7--7---||


 Chorus
  Gtrs I, II
  E E E E Q  Q    E E E E Q  Q    E E E E Q  Q    E E Q  E E E E
|---------------|---------------|---------------|-----------------|
|---------------|---------------|---------------|-----------------|
|---------------|---------------|---------------|----------3-3-3--|
|-2-2-2-2-2--0--|-2-2-2-2-2--5--|-2-2-2-2-2--0--|-2-2-2--x-3-3-3--|
|-2-2-2-2-2--0--|-2-2-2-2-2--5--|-2-2-2-2-2--0--|-2-2-2--x-1-1-1--|
|-2-2-2-2-2--0--|-2-2-2-2-2--5--|-2-2-2-2-2--0--|-2-2-2--x--------|


  E E E E Q  Q    E E E E Q  Q    E E E E Q  Q    E E Q  E E E E
|---------------|---------------|---------------|-----------------||
|---------------|---------------|---------------|-----------------||
|---------------|---------------|---------------|----------3-3-3--||
|-2-2-2-2-2--0--|-2-2-2-2-2--5--|-2-2-2-2-2--0--|-2-2-2--x-3-3-3--||
|-2-2-2-2-2--0--|-2-2-2-2-2--5--|-2-2-2-2-2--0--|-2-2-2--x-1-1-1--||
|-2-2-2-2-2--0--|-2-2-2-2-2--5--|-2-2-2-2-2--0--|-2-2-2--x--------||


 Verse
  E E E E E E E E   E E E E E E E E   E E E E E E E E   E E E E E E E E
|-----------------|-----------------|-----------------|------------------|
|-----------------|-----------------|-----------------|------------------|
|-----------------|-----------------|-----------------|------------------|
|-----------------|-----------------|-----------------|------------------|
|-----------------|-----------------|-----------------|------------------|
|-2-2-2-2-2-2-2-2-|-2-2-2-2-2-2-2-2-|-2-2-2-2-2-2-2-2-|-2-2-2-2-2-2-2-2--|


  E E E E E E E E   E E E E E E E E   E E E E E E E E   E E E E E E E E
|-----------------|-----------------|-----------------|------------------|
|-----------------|-----------------|-----------------|------------------|
|-----------------|-----------------|-----------------|------------------|
|-----------------|-----------------|-----------------|------------------|
|-----------------|-----------------|-----------------|------------------|
|-5-5-5-5-5-5-5-5-|-5-5-5-5-5-5-5-5-|-7-7-7-7-7-7-7-7-|-7-7-7-7-7-7-7-7--|


  E E E E E E E E   E E E E E E E E   E E E E E E E E   E E E E E E E E
|-----------------|-----------------|-----------------|------------------|
|-----------------|-----------------|-----------------|------------------|
|-----------------|-----------------|-----------------|------------------|
|-----------------|-----------------|-----------------|------------------|
|-----------------|-----------------|-----------------|------------------|
|-2-2-2-2-2-2-2-2-|-2-2-2-2-2-2-2-2-|-2-2-2-2-2-2-2-2-|-2-2-2-2-2-2-2-2--|


  E E E E E E E E   E E E E E E E E   E E E E E E E E   E Q  E Q  Q
|-----------------|-----------------|-----------------|---------------||
|-----------------|-----------------|-----------------|---------------||
|-----------------|-----------------|-----------------|---------------||
|-----------------|-----------------|-----------------|---------------||
|-----------------|-----------------|-----------------|---7--7-7--7---||
|-5-5-5-5-5-5-5-5-|-5-5-5-5-5-5-5-5-|-7-7-7-7-7-7-7-7-|-7-7--7-7--7---||


 Chorus
  E E E E Q  Q    E E E E Q  Q    E E E E Q  Q    E E Q  E E E E
|---------------|---------------|---------------|-----------------|
|---------------|---------------|---------------|-----------------|
|---------------|---------------|---------------|----------3-3-3--|
|-2-2-2-2-2--0--|-2-2-2-2-2--5--|-2-2-2-2-2--0--|-2-2-2--x-3-3-3--|
|-2-2-2-2-2--0--|-2-2-2-2-2--5--|-2-2-2-2-2--0--|-2-2-2--x-1-1-1--|
|-2-2-2-2-2--0--|-2-2-2-2-2--5--|-2-2-2-2-2--0--|-2-2-2--x--------|


  E E E E Q  Q    E E E E Q  Q    E E E E Q  Q    E E Q  E E E E
|---------------|---------------|---------------|-----------------|
|---------------|---------------|---------------|-----------------|
|---------------|---------------|---------------|----------3-3-3--|
|-2-2-2-2-2--0--|-2-2-2-2-2--5--|-2-2-2-2-2--0--|-2-2-2--x-3-3-3--|
|-2-2-2-2-2--0--|-2-2-2-2-2--5--|-2-2-2-2-2--0--|-2-2-2--x-1-1-1--|
|-2-2-2-2-2--0--|-2-2-2-2-2--5--|-2-2-2-2-2--0--|-2-2-2--x--------|


  E E E E Q  Q    E E E E Q  Q    E E E E Q  Q    E E Q  E E E E
|---------------|---------------|---------------|-----------------|
|---------------|---------------|---------------|-----------------|
|---------------|---------------|---------------|----------3-3-3--|
|-2-2-2-2-2--0--|-2-2-2-2-2--5--|-2-2-2-2-2--0--|-2-2-2--x-3-3-3--|
|-2-2-2-2-2--0--|-2-2-2-2-2--5--|-2-2-2-2-2--0--|-2-2-2--x-1-1-1--|
|-2-2-2-2-2--0--|-2-2-2-2-2--5--|-2-2-2-2-2--0--|-2-2-2--x--------|


  E E E E Q  Q    E E E E Q  Q    E E E E Q  Q    E E Q  E E E E
|---------------|---------------|---------------|-----------------||
|---------------|---------------|---------------|-----------------||
|---------------|---------------|---------------|----------3-3-3--||
|-2-2-2-2-2--0--|-2-2-2-2-2--5--|-2-2-2-2-2--0--|-2-2-2--x-3-3-3--||
|-2-2-2-2-2--0--|-2-2-2-2-2--5--|-2-2-2-2-2--0--|-2-2-2--x-1-1-1--||
|-2-2-2-2-2--0--|-2-2-2-2-2--5--|-2-2-2-2-2--0--|-2-2-2--x--------||


 Middle Eight
  H..       E   +E  Q  Q  Q  E   +H..       E   +E  Q  Q.   Q
|-------------|----------------|--------------|-----------------|
|-------------|----------------|--------------|-----------------|
|-5---------7-|-(7)----9-----5-|-(5)--------7-|-(7)----9--------|
|-5---------7-|-(7)-7--9--9--5-|-(5)--------7-|-(7)-7--9----9---|
|-3---------5-|-(5)-7--7--9--3-|-(3)--------5-|-(5)-7--7----9---|
|-------------|-----7-----9----|--------------|-----7-------9---|


  H..       E   +E  Q  Q  Q  E   E E E E E E E E   W
|-------------|----------------|-----------------|------||
|-------------|----------------|-----------------|------||
|-5---------7-|-(7)----9-------|-----------------|------||
|-5---------7-|-(7)-7--9--9--3-|-3-3-3-3-3-5-2---|------||
|-3---------5-|-(5)-7--7--9--3-|-3-3-3-3-3-5-2---|------||
|-------------|-----7-----9--3-|-3-3-3-3-3-5-2---|------||


 Guitar Solo
   E     E E         E Q         Q     E     E   E     E   Q       Q
|-----------------------------------|---------------------------------|
|-----------------------------------|---------------------------------|
|-----------------------------------|---------------------------------|
|--2-----2-2---------2-2---------0--|--2-----2---2-----2---2-------5--|
|--2-----2-2---------2-2---------0--|--2-----2---2-----2---2-------5--|
|--2-----2-2---------2-2---------0--|--2-----2---2-----2---2-------5--|
|
| Gtr II
|  |-----------3-----------|
|  H          +H          +H           Q        +Q        +Q       Q
|-----------------------------------|-----------------------------15--|
|-15pb17r====(15)b17r====(15)b17r===|=15pb17r==(15)b17r==(15)b17------|
|-----------------------------------|---------------------------------|
|-----------------------------------|---------------------------------|
|-----------------------------------|---------------------------------|
|-----------------------------------|---------------------------------|


   E     E E         E Q         Q    E  E  Q     E  E  E  E
|-----------------------------------|-------------------------|
|-----------------------------------|-------------------------|
|-----------------------------------|----------------3--3--3--|
|--2-----2-2---------2-2---------0--|-2--2--2-----x--3--3--3--|
|--2-----2-2---------2-2---------0--|-2--2--2-----x--1--1--1--|
|--2-----2-2---------2-2---------0--|-2--2--2-----x-----------|
|
|  |-----------3-----------|
|  H          +H          +H          E  E  E  E  E  E  E  E
|-----------------------------------|---17-17-17-17-15--------|
|-15pb17r====(15)b17r====(15)b17r===|==================17-15--|
|-----------------------------------|-------------------------|
|-----------------------------------|-------------------------|
|-----------------------------------|-------------------------|
|-----------------------------------|-------------------------|


   E     E E         E Q         Q     E     E   E     E   Q       Q
|-----------------------------------|---------------------------------|
|-----------------------------------|---------------------------------|
|-----------------------------------|---------------------------------|
|--2-----2-2---------2-2---------0--|--2-----2---2-----2---2-------5--|
|--2-----2-2---------2-2---------0--|--2-----2---2-----2---2-------5--|
|--2-----2-2---------2-2---------0--|--2-----2---2-----2---2-------5--|
|
|  |-----------3-----------|
|  H          +H          +H           Q        +Q        +Q       Q
|-----------------------------------|-----------------------------15--|
|-15pb17r====(15)b17r====(15)b17r===|=15pb17r==(15)b17r==(15)b17------|
|-----------------------------------|---------------------------------|
|-----------------------------------|---------------------------------|
|-----------------------------------|---------------------------------|
|-----------------------------------|---------------------------------|


   E     E E         E Q         Q    E  E  Q     E  E  E  E
|-----------------------------------|-------------------------||
|-----------------------------------|-------------------------||
|-----------------------------------|----------------3--3--3--||
|--2-----2-2---------2-2---------0--|-2--2--2-----x--3--3--3--||
|--2-----2-2---------2-2---------0--|-2--2--2-----x--1--1--1--||
|--2-----2-2---------2-2---------0--|-2--2--2-----x-----------||
|
|  |-----------3-----------|
|  H          +H          +H          E  E  E  E  E  E  E  E
|-----------------------------------|---17-17-17-17-15--------||
|-15pb17r====(15)b17r====(15)b17r===|==================17-15--||
|-----------------------------------|-------------------------||
|-----------------------------------|-------------------------||
|-----------------------------------|-------------------------||
|-----------------------------------|-------------------------||


 Interlude
   E E E E E E E E     E  E E E E E E E
|------------------|--------------------|
|------------------|--------------------|
|------------------|--------------------|
|------------------|--------------------|
|------------------|--------------------|
|--2-2-2-2-2-2-2-2-|---2--2-2-2-2-2-2-2-|
|
|  ~~~~~~~~~~~~~~~~~~~~~~~~~~~~~~~~~~~~~~
|  W                  +W
|------------------|--------------------|
|-17---------------|-(17)---------------|
|------------------|--------------------|
|------------------|--------------------|
|------------------|--------------------|
|------------------|--------------------|


    E  E E E E E E E     E  E E E E E E E
|--------------------|---------------------|
|--------------------|---------------------|
|--------------------|---------------------|
|--------------------|---------------------|
|--------------------|---------------------|
|---2--2-2-2-2-2-2-2-|---2--2-2-2-2-2-2-2--|
|
|~~~~~~~~~~~~~~~~~~~~~~~~~~~
|  +W                   +W
|--------------------|---------------------|
|-(17)---------------|-(17)----------------|
|--------------------|---------------------|
|--------------------|---------------------|
|--------------------|---------------------|
|--------------------|---------------------|


   E E E E E E E E     E  E E E E E E E
|------------------|--------------------|
|------------------|--------------------|
|------------------|--------------------|
|------------------|--------------------|
|------------------|--------------------|
|--2-2-2-2-2-2-2-2-|---2--2-2-2-2-2-2-2-|
|
|  ~~~~~~~~~~~~~~~~~~~~~~~~~~~~~~~~~~~~~~
|  W                  +W
|------------------|--------------------|
|-17---------------|-(17)---------------|
|------------------|--------------------|
|------------------|--------------------|
|------------------|--------------------|
|------------------|--------------------|


    E  E E E E E E E     E  E E E E E E E
|--------------------|---------------------|
|--------------------|---------------------|
|--------------------|---------------------|
|--------------------|---------------------|
|--------------------|---------------------|
|---2--2-2-2-2-2-2-2-|---2--2-2-2-2-2-2-2--|
|
|~~~~~~~~~~~~~~~~~~~~~~~~~~~
|  +W                   +W
|--------------------|---------------------|
|-(17)---------------|-(17)----------------|
|--------------------|---------------------|
|--------------------|---------------------|
|--------------------|---------------------|
|--------------------|---------------------|


  E E E E E E E E   E E E E E E E E   E E E E E E E E   E E E E E E E E
|-----------------|-----------------|-----------------|------------------|
|-----------------|-----------------|-----------------|------------------|
|-----------------|-----------------|-----------------|------------------|
|-----------------|-----------------|-----------------|------------------|
|-----------------|-----------------|-----------------|------------------|
|-2-2-2-2-2-2-2-2-|-2-2-2-2-2-2-2-2-|-2-2-2-2-2-2-2-2-|-2-2-2-2-2-2-2-2--|


                                      Gtrs I, II
  E E E E E E E E   E E E E E E E E   E H..         H.      Q
|-----------------|-----------------|-------------|--------------||
|-----------------|-----------------|-------------|--------------||
|-----------------|-----------------|-------------|--------------||
|-----------------|-----------------|-2-----------|---------5\---||
|-----------------|-----------------|-2-----------|---------5\---||
|-2-2-2-2-2-2-2-2-|-2-2-2-2-2-2-2-2-|-2-----------|---------5\---||


 Out-Chorus
  E E E E Q  Q    E E E E Q  Q    E E E E Q  Q    E E Q  E E E E
|---------------|---------------|---------------|-----------------|
|---------------|---------------|---------------|-----------------|
|---------------|---------------|---------------|----------3-3-3--|
|-2-2-2-2-2--0--|-2-2-2-2-2--5--|-2-2-2-2-2--0--|-2-2-2--x-3-3-3--|
|-2-2-2-2-2--0--|-2-2-2-2-2--5--|-2-2-2-2-2--0--|-2-2-2--x-1-1-1--|
|-2-2-2-2-2--0--|-2-2-2-2-2--5--|-2-2-2-2-2--0--|-2-2-2--x--------|


  E E E E Q  Q    E E E E Q  Q    E E E E Q  Q    E E Q  E E E E
|---------------|---------------|---------------|-----------------|
|---------------|---------------|---------------|-----------------|
|---------------|---------------|---------------|----------3-3-3--|
|-2-2-2-2-2--0--|-2-2-2-2-2--5--|-2-2-2-2-2--0--|-2-2-2--x-3-3-3--|
|-2-2-2-2-2--0--|-2-2-2-2-2--5--|-2-2-2-2-2--0--|-2-2-2--x-1-1-1--|
|-2-2-2-2-2--0--|-2-2-2-2-2--5--|-2-2-2-2-2--0--|-2-2-2--x--------|


  E E E E Q  Q    E E E E Q  Q    E E E E Q  Q    E E Q   E  E  E  E
|---------------|---------------|---------------|---------------------|
|---------------|---------------|---------------|---------------------|
|---------------|---------------|---------------|------------3--3--3--|
|-2-2-2-2-2--0--|-2-2-2-2-2--5--|-2-2-2-2-2--0--|-2-2-2---x--3--3--3--|
|-2-2-2-2-2--0--|-2-2-2-2-2--5--|-2-2-2-2-2--0--|-2-2-2---x--1--1--1--|
|-2-2-2-2-2--0--|-2-2-2-2-2--5--|-2-2-2-2-2--0--|-2-2-2---x-----------|
|
| Gtr II
| E E E E Q  Q    E E E E Q  Q    E E E E Q  Q    E E E E E  E  E  E
|---------------|---------------|---------------|---------------------|
|---------------|------------8--|---------------|-----------11-11-11--|
|-9-7-9-7-9--7--|-9-7-9-7-9-----|-9-7-9-7-9--7--|-9-7-9-7-------------|
|---------------|---------------|---------------|---------------------|
|---------------|---------------|---------------|---------------------|
|---------------|---------------|---------------|---------------------|


  E E E E Q  Q    E E E E Q  Q    E E E E Q  Q    E E Q   E  E  E  E
|---------------|---------------|---------------|---------------------*|
|---------------|---------------|---------------|---------------------*|
|---------------|---------------|---------------|------------3--3--3--*|
|-2-2-2-2-2--0--|-2-2-2-2-2--5--|-2-2-2-2-2--0--|-2-2-2---x--3--3--3--*|
|-2-2-2-2-2--0--|-2-2-2-2-2--5--|-2-2-2-2-2--0--|-2-2-2---x--1--1--1--*|
|-2-2-2-2-2--0--|-2-2-2-2-2--5--|-2-2-2-2-2--0--|-2-2-2---x-----------*|
|
| E E E E Q  Q    E E E E Q  Q    E E E E Q  Q    E E E E E  E  E  E
|---------------|---------------|---------------|---------------------*|
|---------------|------------8--|---------------|-----------11-11-11--*|
|-9-7-9-7-9--7--|-9-7-9-7-9-----|-9-7-9-7-9--7--|-9-7-9-7-------------*|
|---------------|---------------|---------------|---------------------*|
|---------------|---------------|---------------|---------------------*|
|---------------|---------------|---------------|---------------------*|



Duration Legend
---------------
W - whole; H - half; Q - quarter; E - 8th; S - 16th; T - 32nd; X - 64th; a - acciaccatura
+ - note tied to previous; . - note dotted; .. - note double dotted
Uncapitalized letters represent notes that are staccato (1/2 duration)
Irregular groupings are notated above the duration line
Duration letters will always appear directly above the note/fret number it represents the
duration for.  Duration letters with no fret number below them represent rests.  Multi-
bar rests are notated in the form Wxn, where n is the number of bars to rest for.  Low
melody durations appear below the staff

Tablature Legend
----------------
 h   - hammer-on
 p   - pull-off
 b   - bend
 pb  - pre-bend
 r   - bend release (if no number after the r, then release immediately)
 /\  - slide into or out of (from/to "nowhere")
 s   - legato slide
 S   - shift slide
 - natural harmonic
[n]  - artificial harmonic
n(n) - tapped harmonic
 ~   - vibrato
 tr  - trill
 T   - tap
 TP  - trem. picking
 PM  - palm muting
\n/  - tremolo bar dip; n = amount to dip
 \n  - tremolo bar down
 n/  - tremolo bar up
/n\  - tremolo bar inverted dip
 =   - hold bend; also acts as connecting device for hammers/pulls
 <> - volume swell (louder/softer)
 x   - on rhythm slash represents muted slash
 o   - on rhythm slash represents single note slash

Misc Legend
-----------
 |  - bar
||  - double bar
||o - repeat start
o|| - repeat end
*|  - double bar (ending)
 :  - bar (freetime)
 $  - Segno
 &  - Coda
Tempo markers -  = BPM(8/16=s8/s16), where s8 = swing 8ths, s16 = swing 16ths





Comments


Popular Wednesday 13 tabs & chords
Get Your Grave On Bass Tabs
I Walked With A Zombie 2 Bass Tabs
No Rabbit In The Hat Bass Tabs
We All Die Bass Tabs
Ghost Of Vincent Price 1 Tabs
I Want You Dead Tabs
Miss Morgue 2 Tabs
Morgue Than Words 2 Tabs
One Knife Stand 1 Tabs
With Friends Like These Tabs


Song lyrics



↑ Back to top | Tablatures and chords are parodies/interpretations of the original songs. You may use it for private study, scholarship, research or language learning purposes only
© 2014 AZChords.com Contact us | Privacy policy | DMCA | Add/correct tabs | Request tabs | Top 50 tabs