» » »

Ghost Of Vincent Price Bass tabs (ver.2)

Artists:  A B C D E F G H I J K L M N O P Q R S T U V W X Y Z # 

Ghost Of Vincent Price Bass tabs (ver.2)

Wednesday 13
Rating:
0/5 (0 votes)
Tabs too difficult? Try these video lessons and learn fast.
                -----------------------------------------------------------------------------
                             The Ghost Of Vincent Price - Wednesday 13
-----------------------------------------------------------------------------

Intro:

G|------------------------------------------------------|
D|------------------------------------------------------|
A|-3~---------------------------------------------------|
D|----6~-3~---------------------------------------------|(x2)

G|------------------------------------------------------|
D|------------------------------------------------------|
A|-33333333(x2)-----------------------------------------|
D|--------------66666666-33333333-----------------------|(x2)

Verse:

G|------------------------------------------------------|
D|------------------------------------------------------|
A|-33333333(x2)-----------------------------------------|
D|--------------66666666-33333333-----------------------|(x4)

The "Just cheating death" part:

G|------------------------------------------------------|
D|------------------------------------------------------|
A|-33333333(x2)-----------------------------------------|
D|--------------66666666-33333333-----------------------|(x2)

Pre-chorus:


G|------------------------------------------------------|
D|------------------------------------------------------|
A|------------------------------------------------------|
D|-11111111(x2)-55555555-55555553-----------------------|(x3)

After that 3 you enter straight again into the riff.

G|------------------------------------------------------|
D|------------------------------------------------------|
A|------------------------------------------------------|
D|-11111111(x2)-00000000(x2)----------------------------|

Chorus:

G|--------------------------------------------------------|
D|--------------------------------------------------------|
A|-33333333(x2)-------------------------------------------|
D|--------------66666666-33333333-------------------------|(x4)

The intro part again:

G|-------------------------------------------------------|
D|-------------------------------------------------------|
A|-3~----------------------------------------------------|
D|----6~-3~----------------------------------------------|(x2)

Verse 2 goes the same as the first one!
The "Watching over me" part the same as the first one!
Pre chorus 2 as the first one!
Chorus 2 as the first one!

Solo:

G|-------------------------------------------------------|
D|-------------------------------------------------------|
A|-33333333(x2)------------------------------------------|
D|--------------66666666-33333333------------------------|(x4)

Pre chorus 2 as the others!
Last chorus as the others!

After the last chorus it`s a solo part where Wednesday says "With the ghost of Vincent 
Price"! It goes like this:

G|-------------------------------------------------------|
D|-------------------------------------------------------|
A|-33333333(x2)------------------------------------------|
D|--------------66666666-33333333------------------------|(x4)

And the end is like the intro:

G|-------------------------------------------------------|
D|-------------------------------------------------------|
A|-3~----------------------------------------------------|
D|----6~-3~----------------------------------------------|

Play this part til fade out! It`s a pretty simple song. It has only a few notes but I 
            
Tabs too difficult? Try these video lessons and learn fast.


comments powered by Disqus
↑ Back to top | Tablatures and chords are parodies/interpretations of the original songs. You may use it for private study, scholarship, research or language learning purposes only