» » »

Wednesday 13, From Here To The Hearse Bass tabs (ver.1)

Artists:  A B C D E F G H I J K L M N O P Q R S T U V W X Y Z # 

From Here To The Hearse Bass tabs (ver.1)

Wednesday 13 Tabs
Rating:
0/5 (0 votes)
From Here To The Hearse lessons Tabs too difficult? Try these video lessons and learn fast
                
As recorded by Wednesday 13
(From the 2008 Album SKELETONS)

	

Words and Music by Wednesday 13

Gtr I (C G C F) - 'Picked Bass'

 Intro
  Q=140
 4/4
  Gtr I
  Wx4          W          W          W          W
|------------|----------|----------|----------|------|
|------------|----------|----------|----------|------|
|------------|-2--------|----------|-2--------|------|
|------------|----------|-5--------|----------|-5----|


  W          W          E E E E E E E E   E E E E E E E E
|----------|----------|-----------------|------------------||
|----------|----------|-----------------|------------------||
|-2--------|----------|-----------------|------------------||
|----------|-5--------|-4-4-4-4-4-4-4-4-|-4-4-4-4-4-4-4-4--||


 Riff
  Q  Q  E E E E   Q  Q  E E E E   Q  Q  E E E E   Q  Q  E E E E
|---------------|---------------|---------------|----------------|
|---------------|---------------|---------------|----------------|
|-2--2--2-2-2-2-|---------------|-2--2--2-2-2-2-|----------------|
|---------------|-5--5--5-5-5-5-|---------------|-5--5--5-5-5-5--|


  Q  Q  E E E E   Q  Q  E E E E   E E E E E E E E   E E E E E E E E
|---------------|---------------|-----------------|------------------||
|---------------|---------------|-----------------|------------------||
|-2--2--2-2-2-2-|---------------|-----------------|------------------||
|---------------|-5--5--5-5-5-5-|-4-4-4-4-4-4-4-4-|-4-4-4-4-4-4-4-4--||


 Verse
  Q  Q.   E E E   Q  Q.   E E E   Q  Q.   E E E   Q  Q.   E E E
|---------------|---------------|---------------|----------------|
|---------------|---------------|---------------|----------------|
|-2-------2-2-2-|---------------|-2-------2-2-2-|----------------|
|---------------|-5-------5-5-5-|---------------|-5-------5-5-5--|


  Q  Q  E E E E   Q  Q  E E E E   E E E E E E E E   E E E E E E E E
|---------------|---------------|-----------------|------------------|
|---------------|---------------|-----------------|------------------|
|-2--2--2-2-2-2-|---------------|-----------------|------------------|
|---------------|-5--5--5-5-5-5-|-4-4-4-4-4-4-4-4-|-4-4-4-4-4-4-4-4--|


  Q  Q.   E E E   Q  Q.   E E E   Q  Q.   E E E   Q  Q.   E E E
|---------------|---------------|---------------|----------------|
|---------------|---------------|---------------|----------------|
|-2-------2-2-2-|---------------|-2-------2-2-2-|----------------|
|---------------|-5-------5-5-5-|---------------|-5-------5-5-5--|


  Q  Q  E E E E   Q  Q  E E E E   E E E E E E E E   E E E E E E E E
|---------------|---------------|-----------------|------------------||
|---------------|---------------|-----------------|------------------||
|-2--2--2-2-2-2-|---------------|-----------------|------------------||
|---------------|-5--5--5-5-5-5-|-4-4-4-4-4-4-4-4-|-4-4-4-4-4-4-4-4--||


 Pre-Chorus
  Q  Q  E Q  E   Q  Q  E Q  E   Q  Q  E Q  E   +Q   Q  E Q  E
|--------------|--------------|--------------|-----------------|
|--------------|--------------|--------------|-----------------|
|--------------|--------------|-2--2--0-2--2-|-(2)--2--0-2--2--|
|-2--2--0-2--2-|-2--2--0-2--2-|--------------|-----------------|


  Q  Q  E Q  E   Q  Q  E Q  E   E E E E E E E E   E E E E E E E E
|--------------|--------------|-----------------|------------------||
|--------------|--------------|-----------------|------------------||
|--------------|--------------|-----------------|------------------||
|-2--2--0-2--2-|-2--2--0-2--2-|-4-4-4-4-4-4-4-4-|-4-4-4-4-4-4-4-4--||


 Chorus
  Q  Q  E E E E   Q  Q  E E E E   Q  Q  E E E E   Q  Q  E E E E
|---------------|---------------|---------------|----------------|
|---------------|---------------|---------------|----------------|
|-2--2--2-2-2-2-|---------------|-2--2--2-2-2-2-|----------------|
|---------------|-5--5--5-5-5-5-|---------------|-5--5--5-5-5-5--|


  Q  Q  E E E E   Q  Q  E E E E   E E E E E E E E   E E E E E E E E
|---------------|---------------|-----------------|------------------||
|---------------|---------------|-----------------|------------------||
|-2--2--2-2-2-2-|---------------|-----------------|------------------||
|---------------|-5--5--5-5-5-5-|-4-4-4-4-4-4-4-4-|-4-4-4-4-4-4-4-4--||


 Bridge
  Wx4          W          W          E E E E E E E E   E E E E E E E E
|------------|----------|----------|-----------------|-------------------||
|------------|----------|----------|-----------------|-------------------||
|------------|-2--------|----------|-----------------|-------------------||
|------------|----------|-5--------|-4-4-4-4-4-4-4-4-|-4-4-4-4-4-4-4-4---||


 Verse
  Q  Q.   E E E   Q  Q.   E E E   Q  Q.   E E E   Q  Q.   E E E
|---------------|---------------|---------------|----------------|
|---------------|---------------|---------------|----------------|
|-2-------2-2-2-|---------------|-2-------2-2-2-|----------------|
|---------------|-5-------5-5-5-|---------------|-5-------5-5-5--|


  Q  Q.   E E E   Q  Q.   E E E   E E E E E E E E   E E E E E E E E
|---------------|---------------|-----------------|------------------|
|---------------|---------------|-----------------|------------------|
|-2-------2-2-2-|---------------|-----------------|------------------|
|---------------|-5-------5-5-5-|-4-4-4-4-4-4-4-4-|-4-4-4-4-4-4-4-4--|


  Q  Q  E E E E   Q  Q  E E E E   Q  Q  E E E E   Q  Q  E E E E
|---------------|---------------|---------------|----------------|
|---------------|---------------|---------------|----------------|
|-2--2--2-2-2-2-|---------------|-2--2--2-2-2-2-|----------------|
|---------------|-5--5--5-5-5-5-|---------------|-5--5--5-5-5-5--|


  Q  Q.   E E E   Q  Q.   E E E   E E E E E E E E   E E E E E E E E
|---------------|---------------|-----------------|------------------||
|---------------|---------------|-----------------|------------------||
|-2-------2-2-2-|---------------|-----------------|------------------||
|---------------|-5-------5-5-5-|-4-4-4-4-4-4-4-4-|-4-4-4-4-4-4-4-4--||


 Pre-Chorus
  Q  Q  E Q  E   Q  Q  E Q  E   Q  Q  E Q  E   +Q   Q  E Q  E
|--------------|--------------|--------------|-----------------|
|--------------|--------------|--------------|-----------------|
|--------------|--------------|-2--2--0-2--2-|-(2)--2--0-2--2--|
|-2--2--0-2--2-|-2--2--0-2--2-|--------------|-----------------|


  Q  Q  E Q  E   Q  Q  E Q  E   E E E E E E E E   E E E E E E E E
|--------------|--------------|-----------------|------------------||
|--------------|--------------|-----------------|------------------||
|--------------|--------------|-----------------|------------------||
|-2--2--0-2--2-|-2--2--0-2--2-|-4-4-4-4-4-4-4-4-|-4-4-4-4-4-4-4-4--||


 Chorus
  Q  Q  E E E E   Q  Q  E E E E   Q  Q  E E E E   Q  Q  E E E E
|---------------|---------------|---------------|----------------|
|---------------|---------------|---------------|----------------|
|-2--2--2-2-2-2-|---------------|-2--2--2-2-2-2-|----------------|
|---------------|-5--5--5-5-5-5-|---------------|-5--5--5-5-5-5--|


  Q  Q  E E E E   Q  Q  E E E E   E E E E E E E E   E E E E E E E E
|---------------|---------------|-----------------|------------------||
|---------------|---------------|-----------------|------------------||
|-2--2--2-2-2-2-|---------------|-----------------|------------------||
|---------------|-5--5--5-5-5-5-|-4-4-4-4-4-4-4-4-|-4-4-4-4-4-4-4-4--||


 Guitar Solo
  Q  Q  E E E E   Q  Q  E E E E   Q  Q  E E E E   Q  Q  E E E E
|---------------|---------------|---------------|----------------|
|---------------|---------------|---------------|----------------|
|-2--2--2-2-2-2-|---------------|-2--2--2-2-2-2-|----------------|
|---------------|-5--5--5-5-5-5-|---------------|-5--5--5-5-5-5--|


  Q  Q  E E E E   Q  Q  E E E E   E E E E E E E E   E E E E E E E E
|---------------|---------------|-----------------|------------------||
|---------------|---------------|-----------------|------------------||
|-2--2--2-2-2-2-|---------------|-----------------|------------------||
|---------------|-5--5--5-5-5-5-|-4-4-4-4-4-4-4-4-|-4-4-4-4-4-4-4-4--||


 Pre-Chorus
  Q  Q  E Q  E   Q  Q  E Q  E   Q  Q  E Q  E   +Q   Q  E Q  E
|--------------|--------------|--------------|-----------------|
|--------------|--------------|--------------|-----------------|
|--------------|--------------|-2--2--0-2--2-|-(2)--2--0-2--2--|
|-2--2--0-2--2-|-2--2--0-2--2-|--------------|-----------------|


  Q  Q  E Q  E   Q  Q  E Q  E   E E E E E E E E   E E E E E E E E
|--------------|--------------|-----------------|------------------||
|--------------|--------------|-----------------|------------------||
|--------------|--------------|-----------------|------------------||
|-2--2--0-2--2-|-2--2--0-2--2-|-4-4-4-4-4-4-4-4-|-4-4-4-4-4-4-4-4--||


 Chorus
  Q  Q  E E E E   Q  Q  E E E E   Q  Q  E E E E   Q  Q  E E E E
|---------------|---------------|---------------|----------------|
|---------------|---------------|---------------|----------------|
|-2--2--2-2-2-2-|---------------|-2--2--2-2-2-2-|----------------|
|---------------|-5--5--5-5-5-5-|---------------|-5--5--5-5-5-5--|


  Q  Q  E E E E   Q  Q  E E E E   E E E E E E E E   E E E E E E E E
|---------------|---------------|-----------------|------------------||
|---------------|---------------|-----------------|------------------||
|-2--2--2-2-2-2-|---------------|-----------------|------------------||
|---------------|-5--5--5-5-5-5-|-4-4-4-4-4-4-4-4-|-4-4-4-4-4-4-4-4--||


 Outro
  Wx4          W          W
|------------|----------|----------|
|------------|----------|----------|
|------------|-2--------|----------|
|------------|----------|-5--------|


  E E E E E E E E   E E E E E E E E   H     H
|-----------------|-----------------|------------*|
|-----------------|-----------------|------------*|
|-----------------|-----------------|------------*|
|-4-4-4-4-4-4-4-4-|-4-4-4-4-4-4-4-4-|-4\---------*|



Duration Legend
---------------
W - whole; H - half; Q - quarter; E - 8th; S - 16th; T - 32nd; X - 64th; a - acciaccatura
+ - note tied to previous; . - note dotted; .. - note double dotted
Uncapitalized letters represent notes that are staccato (1/2 duration)
Irregular groupings are notated above the duration line
Duration letters will always appear directly above the note/fret number it represents the
duration for.  Duration letters with no fret number below them represent rests.  Multi-
bar rests are notated in the form Wxn, where n is the number of bars to rest for.  Low
melody durations appear below the staff

Tablature Legend
----------------
 h   - hammer-on
 p   - pull-off
 b   - bend
 pb  - pre-bend
 r   - bend release (if no number after the r, then release immediately)
 /\  - slide into or out of (from/to "nowhere")
 s   - legato slide
 S   - shift slide
 - natural harmonic
[n]  - artificial harmonic
n(n) - tapped harmonic
 ~   - vibrato
 tr  - trill
 T   - tap
 TP  - trem. picking
 PM  - palm muting
\n/  - tremolo bar dip; n = amount to dip
 \n  - tremolo bar down
 n/  - tremolo bar up
/n\  - tremolo bar inverted dip
 =   - hold bend; also acts as connecting device for hammers/pulls
 <> - volume swell (louder/softer)
 x   - on rhythm slash represents muted slash
 o   - on rhythm slash represents single note slash

Misc Legend
-----------
 |  - bar
||  - double bar
||o - repeat start
o|| - repeat end
*|  - double bar (ending)
 :  - bar (freetime)
 $  - Segno
 &  - Coda
Tempo markers -  = BPM(8/16=s8/s16), where s8 = swing 8ths, s16 = swing 16ths
            
Submit corrections

comments powered by Disqus
↑ Back to top | Wednesday 13 Bass for From Here To The Hearse. Lyrics for acoustic guitar and electric guitar. Tablatures and chords are parodies/interpretations of the original songs. You may use it for private study, scholarship, research or language learning purposes only