» » »

Wednesday 13, Bullet Name Christ Bass tabs (ver.1)

Artists:  A B C D E F G H I J K L M N O P Q R S T U V W X Y Z # 

Bullet Name Christ Bass tabs (ver.1)

Wednesday 13 Tabs
 Rating:
4/5 (4 votes)
Bullet Name Christ lessons Tabs too difficult? Try these video lessons and learn fast
                
A BULLET NAMED CHRIST (Bassline)
As recorded by Wednesday 13
(From the 2005 Album TRANSYLVANIA 90210)

	

Words and Music by Wednesday 13
Arranged by Woutjinho

Gtr I (C G C F) - 'Synth Bass'

 Intro                   Verse
  Q=87
 4/4
  Gtr I
  W          W            W
|----------|----------||-----------|
|----------|----------||o----------|
|----------|----------||o-0--------|
|----------|----------||--0--------|


  +H..       E   W          +H..        E   4x
|--------------|----------|-----------------||
|--------------|----------|----------------o||
|-(0)--------0-|-0--------|-(0)--------(0)-o||
|-(0)--------0-|-0--------|-(0)---------0---||


   Chorus
    W          +H..       E   W          +H..       E
||-----------|--------------|----------|----------------||
||o----------|--------------|----------|---------------o||
||o-0--------|-(0)--------0-|-0--------|-(0)--------0--o||
||--0--------|-(0)--------0-|-0--------|-(0)--------0---||


   Verse
    W          +H..       E   W          +H..       E
||-----------|--------------|----------|----------------||
||o----------|--------------|----------|---------------o||
||o-0--------|-(0)--------0-|-0--------|-(0)--------0--o||
||--0--------|-(0)--------0-|-0--------|-(0)--------0---||


   Chorus
        >                            >
    Q  +H.        +H..       E   Q  +H.        +H..        E
||--------------|--------------|-------------|------------------||
||o-------------|--------------|-------------|-----------------o||
||o-0--(0)------|-(0)--------0-|-0--(0)------|-(0)--------(0)--o||
||--0--(0)------|-(0)--------0-|-0--(0)------|-(0)---------0----||


 Interlude
  W          W          W          W
|----------|----------|----------|------|
|-4--------|-3--------|-2--------|------|
|-2--------|-1--------|-0--------|-6----|
|----------|----------|----------|-4----|


   Verse
    W          W          W          W     3x
||-----------|----------|----------|-------||
||o-4--------|-3--------|-2--------|------o||
||o-2--------|-1--------|-0--------|-6----o||
||-----------|----------|----------|-4-----||


  Gtr I
  W          W          W          H..       E
|----------|----------|----------|-------------|
|-4--------|-3--------|-2--------|-------------|
|-2--------|-1--------|-0--------|-4---------0-|
|----------|----------|----------|-4---------0-|


 Outro
  E H..         W          W          W
|-------------|----------|----------|------|
|-------------|----------|----------|------|
|-2-----------|----------|----------|------|
|-0-----------|----------|----------|------|


    W          W          W          W     6x
||-----------|----------|----------|-------||
||o----------|----------|----------|------o||
||o----------|----------|----------|------o||
||-----------|----------|----------|-------||



Duration Legend
---------------
W - whole; H - half; Q - quarter; E - 8th; S - 16th; T - 32nd; X - 64th; a - acciaccatura
+ - note tied to previous; . - note dotted; .. - note double dotted
Uncapitalized letters represent notes that are staccato (1/2 duration)
Irregular groupings are notated above the duration line
Duration letters will always appear directly above the note/fret number it represents the
duration for.  Duration letters with no fret number below them represent rests.  Multi-
bar rests are notated in the form Wxn, where n is the number of bars to rest for.  Low
melody durations appear below the staff

Tablature Legend
----------------
 h   - hammer-on
 p   - pull-off
 b   - bend
 pb  - pre-bend
 r   - bend release (if no number after the r, then release immediately)
 /\  - slide into or out of (from/to "nowhere")
 s   - legato slide
 S   - shift slide
 - natural harmonic
[n]  - artificial harmonic
n(n) - tapped harmonic
 ~   - vibrato
 tr  - trill
 T   - tap
 TP  - trem. picking
 PM  - palm muting
\n/  - tremolo bar dip; n = amount to dip
 \n  - tremolo bar down
 n/  - tremolo bar up
/n\  - tremolo bar inverted dip
 =   - hold bend; also acts as connecting device for hammers/pulls
 <> - volume swell (louder/softer)
 x   - on rhythm slash represents muted slash
 o   - on rhythm slash represents single note slash

Misc Legend
-----------
 |  - bar
||  - double bar
||o - repeat start
o|| - repeat end
*|  - double bar (ending)
 :  - bar (freetime)
 $  - Segno
 &  - Coda
Tempo markers -  = BPM(8/16=s8/s16), where s8 = swing 8ths, s16 = swing 16ths
            
Submit corrections

comments powered by Disqus
↑ Back to top | Wednesday 13 Bass for Bullet Name Christ. Lyrics for acoustic guitar and electric guitar. Tablatures and chords are parodies/interpretations of the original songs. You may use it for private study, scholarship, research or language learning purposes only