>
 >
Blood Fades To Black Reprise

Blood Fades To Black Reprise Guitar Tabs

Wednesday 13 - Blood Fades To Black Reprise chords, tabs, tablatures, lyrics

Guitar lessons | Add/correct | Request | Top 50 tabs Artists:  A B C D E F G H I J K L M N O P Q R S T U V W X Y Z 0-9

Blood Fades To Black Reprise Guitar Tabs – Wednesday 13

CD, Sheet music, Poster

Do you like Blood Fades To Black Reprise? Share with your friends now
Tabs
----------------------------------------------------------------------------
                   Wednesday 13 - Blood Fades to Black (Reprise)
----------------------------------------------------------------------------


Tuning: CFBEGC (B and E flat)

Rhythm Guitar:
(Repeat throughout the piece)
C|---------4----------------5------------------9------------------7-------|
G|-------4---4------------5---5--------------9---9--------------7---7-----|
E|------------------------------------------------------------------------|
B|-----6-------6--------7-------7---------11-------11---------9-------9---|
F|---6-----------6----7-----------7----11-------------11----9-----------9-|
C|-4----------------5----------------9--------------------7---------------|

C|---------4----------------5----------------0----------------0-------|
G|-------4---4------------5---5------------0---0------------0---0-----|
E|--------------------------------------------------------------------|
B|-----6-------6--------7-------7--------2-------2--------2-------2---|
F|---6-----------6----7-----------7----2-----------2----2-----------2-|
C|-4----------------5----------------0----------------0---------------|


The solo parts are mainly made up of harmonics and sound effects. Repeat solos 
throughout the piece.

Solo Part 1:
C|-4~-5~----7~-4~-5~----|
G|-------2~----------5~-|
E|----------------------|
B|----------------------|
F|----------------------|
C|----------------------|

Solo Part 2:
(These notes are held for a very long time. Listen to music to know when to change note.)
C|----4+~----7+~----|
G|-5~-----5~-----5~-|
E|------------------|
B|------------------|
F|------------------|
C|------------------|

************************************

| /   slide up
| \   slide down
| h   hammer-on
| ~   vibrato
| +   harmonic
| x   Mute note
| b   Bend

************************************

If you have any comments/corrections, please say in either the comments box or leave me
a message.
Good luck and enjoy!





Comments


Popular Wednesday 13 tabs & chords
Scream Baby Scream Bass Tabs
Bad Things Tabs
Ghost Of Vincent Price 4 Tabs
I Wanna Be Cremated Tabs
London After Midnight Tabs
Miss Morgue Tabs
Morgue Than Words 2 Tabs
No Rabbit In The Hat Tabs
With Friends Like These Tabs
Skeletons 2 Ukulele


Song lyrics



↑ Back to top | Tablatures and chords are parodies/interpretations of the original songs. You may use it for private study, scholarship, research or language learning purposes only
© 2014 AZChords.com Contact us | Privacy policy | DMCA | Add/correct tabs | Request tabs | Top 50 tabs