» » »

Wednesday 13, Blood Fades To Black Tabs (ver.1)

Artists:  A B C D E F G H I J K L M N O P Q R S T U V W X Y Z # 

Blood Fades To Black Tabs (ver.1)

Wednesday 13 Tabs
Rating:
0/5 (0 votes)
Blood Fades To Black lessons Tabs too difficult? Try these video lessons and learn fast
                -----------------------------------------------------------------------------
                       Wednesday 13 - Blood Fades to Black
-----------------------------------------------------------------------------


Tuning: DGCFAD

Intro by Solos:
Solo 1:
D|-2~-|
A|-3~-|
F|----|
C|----|
G|----|
D|----|

Solo 2:
D|----/10~-|
A|-3/------|
F|---------|
C|---------|
G|---------|
D|---------|

Rest of the Piece:
(Repeat all parts until the end of the piece)

Rhythm Guitar:
(Listen to music for rhythm)
D|-2--3--7--5--2--3--10--10--|
A|-2--3--7--5--2--3--10--10--|
F|-2--3--7--5--2--3--10--10--|   
C|-4--5--9--7--4--5--12--12--|  
G|-4--5--9--7--4--5--12--12--|
D|-2--3--7--5--2--3--10--10--|

Solo 1:
D|-2222-3333-7777-5555--2222-3333-----------|
A|-3333-3333-3333-3333--3333-3333-3333-3333-|
F|------------------------------------------|
C|------------------------------------------|
G|------------------------------------------|
D|------------------------------------------|

Solo Part 2:
D|----10~-------|
A|-3~-----3~-3~-|
F|--------------|
C|--------------|
G|--------------|
D|--------------|

Solo Part 3:
(Listen for this part, it comes near the end of each phrase)
D|-0-------|
A|---3-----|
F|-----2---|
C|-------0-|
G|---------|
D|---------|


End on:
D|-10~-|
A|-10~-|
F|-10~-|
C|-12~-|
G|-12~-|
D|-10~-|

Solo Parts:
D|-2~-|
A|-3~-|
F|----|
C|----|
G|----|
D|----|

************************************

| /   slide up
| \   slide down
| h   hammer-on
| ~   vibrato
| +   harmonic
| x   Mute note

************************************

If you have any comments/corrections, please say in either the comments box or leave me 
a message.
Good luck and enjoy!
            
Submit corrections

comments powered by Disqus
↑ Back to top | Wednesday 13 Tabs for Blood Fades To Black. Lyrics for acoustic guitar and electric guitar. Tablatures and chords are parodies/interpretations of the original songs. You may use it for private study, scholarship, research or language learning purposes only