» » »

Bad At Being HumanSolo Tabs (ver.1)

Artists:  A B C D E F G H I J K L M N O P Q R S T U V W X Y Z # 

Bad At Being HumanSolo Tabs (ver.1)

Wednesday 13
Rating:
0/5 (0 votes)

Hard to play? Try these video lessons and learn fast.
                -----------------------------------------------------------------------------
                      Wednesday 13 - Bad At Being Human
-----------------------------------------------------------------------------


Tuning: CGCFAD

I'm not sure about the solo in the bridge, so please check them out and tell me if 
anything is wrong.

Listen to when you come in.

Intro Solo:
D|------------------------------999-8-|
A|-7-7-10-10-12-10-12-10-12-10~-------|
F|------------------------------------|
C|------------------------------------|
G|------------------------------------|
C|------------------------------------|


Chorus Solo:
D|----------------------------------------------------999-8-|
A|-10-9-7-5-7-9-10-9-1010-99-77-99--10-9-7-5-7-9-10-9-------|
F|----------------------------------------------------------|
C|----------------------------------------------------------|
G|----------------------------------------------------------|
C|----------------------------------------------------------|


Bridge Solo:
D|------------------7-7-7-7h5--------------|
A|-7b-7b-7-5-----7------------7h5-7-7------|
F|-----------6h4-6------------------6-6-6--|
C|-----------------------------------------|
G|-----------------------------------------|
C|-----------------------------------------|

D|-----------------------------------------------|
A|-----------------------9h10-9h7----------------|
F|-5/6-6-4------------6-----------9-7-6---6b-----|
C|---------7-6-4-6--4-7-----------------9--------|
G|-------------------------------------------8b~-|
C|-----------------------------------------------|


Chorus Solo:
D|---------------------------------------------------------99-1414~-|
A|-10-9-7-5-7-9-10-9-1010-99-77-99--10-9-7-5-7-9-10-9-1010----------|
F|------------------------------------------------------------------|
C|------------------------------------------------------------------|
G|------------------------------------------------------------------|
C|------------------------------------------------------------------|

D|----------------------------------------------------999-8-|
A|-10-9-7-5-7-9-10-9-1010-99-77-99--10-9-7-5-7-9-10-9-------|
F|----------------------------------------------------------|
C|----------------------------------------------------------|
G|----------------------------------------------------------|
C|----------------------------------------------------------|

************************************

| /   slide up
| \   slide down
| h   hammer-on
| ~   vibrato
| x   Mute note
| b   Bend

************************************

If you have any comments/corrections, please say in either the comments box or leave me
a message.
Good luck and enjoy!
            
Hard to play? Try these video lessons and learn fast. | Correct




comments powered by Disqus
↑ Back to top | Tablatures and chords are parodies/interpretations of the original songs. You may use it for private study, scholarship, research or language learning purposes only