» » »

Queen Anne Chords (ver.1)

Artists:  A B C D E F G H I J K L M N O P Q R S T U V W X Y Z # 

Queen Anne Chords (ver.1)

The Wedding Present
Rating:
0/5 (0 votes)

Tabs too difficult? Try these video lessons and learn fast.
                Simple, yet powerful song. Please listen to the song for the timings.

-------------------------------------------------------------------------------
-------------------------------------------------------------------------------

Tuning: Standard


Verse 1:

e|--------------|--------------|--------------|--------------|
B|--9------5----|--------------|--------------|--------------|
G|--------------|--8-----------|--9------6----|--8-----------|
D|--------------|---------9----|--------------|--------------|
A|--------------|--------------|--------------|--------------|
E|--------------|--------------|--------------|--------------|

e|-------4------4------4------4-------4------4------4------4-|
B|-----5------5------5------5-------4------4------4------4---|
G|---6------6------6------6-------4------4------4------4-----|
D|-6------6------6------6-------6------6------6------6-------|
A|-----------------------------------------------------------|
E|-----------------------------------------------------------|

e|-------5------5------5------5-------4------4------4------4-|
B|-----5------5------5------5-------4------4------4------4---|
G|---6------6------6------6-------4------4------4------4-----|
D|-7------7------7------7-------6------6------6------6-------|
A|-----------------------------------------------------------|
E|-----------------------------------------------------------|


VERSE 1:

 C#m                              Abm
When you push your hair away and stare at me with sleepy eyes 
        A                               Abm
I get a feeling here, a feeling I don't recognise 
  C#m  
I wanna give you everything 
     Abm
I've been in love but this is worse 
               A                                  Abm
I just want to cling to you and save you from the universe 


CHORUS:

       E                                        Abm
'Cause I have fallen in a way I've never done before 
                                              E
You're all I need today I don't want anything more 
                                               Abm
As unlikely as it seems, it's as if you just appeared 
                                                     
Out of one of my dreams, I don't care if that sounds 

VERSE 2:

C#m                                 Abm
Weird because you're beautiful, and yet completely unaware 
          A                                  Abm
Oh sure I miss my home but I'd live with you anywhere 

CHORUS:

      E                                        Abm
'Cause I have fallen in a way I've never done before 
                                              E
You're all I need today I don't want anything more 
                                               Abm
As unlikely as it seems, it's as if you just appeared 
                                                     A  C#m   A  Abm
Out of one of my dreams, I don't care if that sounds weird


C#m (build up)


SOLO/ENDING (up to the operatic outro):

E    Abm   E   Abm  
A  C#m  A  Abm
A  C#m  A  Abm
C#m
            
Tabs too difficult? Try these video lessons and learn fast.




comments powered by Disqus
↑ Back to top | Tablatures and chords are parodies/interpretations of the original songs. You may use it for private study, scholarship, research or language learning purposes only