» » »

We Came As Romans, We Are The Reasons Tabs (ver.1)

Artists:  A B C D E F G H I J K L M N O P Q R S T U V W X Y Z # 

We Are The Reasons Tabs (ver.1)

We Came As Romans Tabs
Rating:
2/5 (5 votes)
We Are The Reasons lessons Tabs too difficult? Try these video lessons and learn fast
                |-----------------------------------121512---------|-----------------------
|------------------------------------------15-12---|-----------------------
|-------12-14-12-----------------12----------------|-----------------------
|-14-15-----------15-14-12-14-15----------------x6-|-----------------------
|--------------------------------------------------|-0000000030-0-00-------


|----------------|------------------------------------------------|--------|
|----------------|------------------------------------------------|--------|
|----------------|------------------------------------------------|--------|
|----------------|------------------------------------------------|-0--078-|
|----------------|------------------------------------------------|-0--078-|
|-0000000030-0-00|-0000000030-0-00-30-0-00-30-0-00-0000000030-0-00|-0--078-|


|-------------|-----|----------------|------------------------------------|
|-------------|-----|----------------|------------------------------------|
|-------------|-----|----------------|-12121212|12121212|12121212|12121212|
|-0---078--0-0|0--0-|0--078--0--078-0|------------------------------------|
|-0---078--0-0|0--0-|0--078--0--078-0|------------------------------------|
|-0---078--0-0|0--0-|0--078--0--078-0|------------------------------------|


|-----------------------------------|-----------------------------------|
|-----------------------------------|-----------------------------------|
|15151515|15151515|14141414|14141414|17171717|17171717|17171717|17171717|
|-----------------------------------|-----------------------------------|
|-----------------------------------|-----------------------------------|
|-----------------------------------|-----------------------------------|


|-----------------------------------|---------------|----------------|
|-----------------------------------|---------------|----------------|
|19191919|19191919|21212121|21212121|---------------|----------------|
|-----------------------------------|0-0-0-0-0-0-0-0|-8-8-8-8-7-7-7-7|
|-----------------------------------|0-0-0-0-0-0-0-0|-8-8-8-8-7-7-7-7|
|-----------------------------------|0-0-0-0-0-0-0-0|-8-8-8-8-7-7-7-7|


|----------------|--------------------|----------------|----------------|
|----------------|--------------------|----------------|----------------|
|----------------|--------------------|----------------|----------------|
|-0-0-0-0-0-0-0-0|-8-8-8-8-10-10-10-10|-0-0-0-0-0-0-0-0|-8-8-8-8-7-7-7-7|
|-0-0-0-0-0-0-0-0|-8-8-8-8-10-10-10-10|-0-0-0-0-0-0-0-0|-8-8-8-8-7-7-7-7|
|-0-0-0-0-0-0-0-0|-8-8-8-8-10-10-10-10|-0-0-0-0-0-0-0-0|-8-8-8-8-7-7-7-7|


|----------------|--------------------|---|-------------------------------|
|----------------|--------------------|---|-------------------------------|
|----------------|--------------------|---|-------------------------------|
|-0-0-0-0-0-0-0-0|-8-8-8-8-10-10-10-10|-0-|-------------------------------|
|-0-0-0-0-0-0-0-0|-8-8-8-8-10-10-10-10|-0-|-------------------------------|
|-0-0-0-0-0-0-0-0|-8-8-8-8-10-10-10-10|-0-|-30-00-0-00-30-00-0-00-30-00-0-|

|------------------------------|------------------------------|------------|
|------------------------------|------------------------------|------------|
|------------------------------|------------------------------|777777779999|
|------------------------------|------------------------------|777777779999|
|------------------------------|------------------------------|555555557777|
|-30-00-0-00-30-00-0-00-30-00-0|-30-00-0-00-30-00-0-00-30-00-0|------------|


|-710977910771097710977109771097101213101312-|------------------------|
|--------------------------------------------|------------------------|
|----------------------------------------X5--|------12-14-12-------12-|
|--------------------------------------------|-14-15---------15-14----|
|--------------------------------------------|------------------------|
|--------------------------------------------|------------------------|
                                               (JUST LIKE INTRO)



|121512------|-------|------------|-----|----------------|----------------|
|-------15-12|-------|------------|-----|----------------|----------------|
|------------|-------|------------|-----|----------------|----------------|
|--------X6--|-0--078|0---078--0-0|0--0-|0--078--0--078-0|-0-0-0-0-0-0-0-0|
|------------|-0--078|0---078--0-0|0--0-|0--078--0--078-0|-0-0-0-0-0-0-0-0|
|------------|-0--078|0---078--0-0|0--0-|0--078--0--078-0|-0-0-0-0-0-0-0-0|


|---------------|----------------|--------------------|---------------|
|---------------|----------------|--------------------|---------------|
|---------------|----------------|--------------------|---------------|
|8-8-8-8-7-7-7-7|-0-0-0-0-0-0-0-0|-8-8-8-8-10-10-10-10|0-0-0-0-0-0-0-0|
|8-8-8-8-7-7-7-7|-0-0-0-0-0-0-0-0|-8-8-8-8-10-10-10-10|0-0-0-0-0-0-0-0|
|8-8-8-8-7-7-7-7|-0-0-0-0-0-0-0-0|-8-8-8-8-10-10-10-10|0-0-0-0-0-0-0-0|


|----------------|---------------|--------------------|--------|
|----------------|---------------|--------------------|--------|
|----------------|---------------|--------------------|--------|
|-8-8-8-8-7-7-7-7|0-0-0-0-0-0-0-0|-8-8-8-8-10-10-10-10|-0------|
|-8-8-8-8-7-7-7-7|0-0-0-0-0-0-0-0|-8-8-8-8-10-10-10-10|-0------|
|-8-8-8-8-7-7-7-7|0-0-0-0-0-0-0-0|-8-8-8-8-10-10-10-10|-0------|
            
Submit corrections

comments powered by Disqus
↑ Back to top | We Came As Romans Tabs for We Are The Reasons. Lyrics for acoustic guitar and electric guitar. Tablatures and chords are parodies/interpretations of the original songs. You may use it for private study, scholarship, research or language learning purposes only