» » »

We Came As Romans, To Plant A Seed Tabs (ver.3)

Artists:  A B C D E F G H I J K L M N O P Q R S T U V W X Y Z # 

To Plant A Seed Tabs (ver.3)

We Came As Romans Tabs
 Rating:
4/5 (13 votes)
To Plant A Seed lessons Tabs too difficult? Try these video lessons and learn fast
1
                We Came As Romans
"To Plant A Seed"
To Plant A Seed (2009)

Pretty easy to play. Missing some lead because its hard to make out.

~ let note ring
* palm mute
p pull off
h hammer on
b bend
/ slide down
\ slide up
x mute note

Drop D (D A D G B E)

Gtr 1.
-------(x2)----------|--(x2)---|
---------------------|---------|
---------------------|---------|
-8-3-0~--8-0-8-3--0~-|-8-0-8-3-|
-8-3-0~--8-0-8-3--0~-|-8-0-8-3-|
-8-3-0~--8-0-8-3--0~-|-8-0-8-3-|


Gtr 2. (x2)
---------8-----8-----|-8-----8-----8-----|
-5-5-6-5---6-5---6-5-|---6-5---6-5---6-5-|
---------------------|-------------------|
---------------------|-------------------|
---------------------|-------------------|
---------------------|-------------------|

Both Gtrs.
----------------------------------------------------------|
----------------------------------------------------------|
----------------------------------------------------------|
----------------------------------------------------------|
-0-0000-0000-0----------------0-0000-0000-0-000000--------|
-0-0000-0000-0-00000088888888-0-0000-0000-0-000000-8p0-3b-|
 * **** **** * ************** * **** **** * ******
-----------------------------------|
-----------------------------------|
-----------------------------------|
-----------------------------------|
-0-0000----------------0000-000000-|
-0-0000-00000088888888-0000-000000-|
 * **** ************** **** ******

Gtr 1. (x2)
------------------------------------------------|
------------------------------------------------|
-------------------------------------9/10\9-----|
-00000000000-33333333333-88888888888-x/-x\x-8-7-|
-00000000000-33333333333-88888888888-7/-8\7-8-7-|
-00000000000-33333333333-88888888888--------8-7-|

Gtr 1. (x2)             |(play 1st time only)
------------------------|------------|
------------------------|------------|
------------------------|-9/10\9-----|
-0---------------8------|-x/-x\x-8-7-|
-0-0000-33333333-8-8888-|-7/-8\7-8-7-|
-0-0000-33333333-8-8888-|--------8-7-|
   **** ********   ****

Gtr 1. 			   |(x4)		      			    |
---------------------------|------------------------------------------------|----|
---------------------------|------------------------------------------------|----|
---7p0---7p0-5h7---7p0-----|-7p0-5h7-7p0-5h7------7p0-5h7-------7p0-5h7-----|----|
---------------------------|------------------------------------------------|-0~-|
---------------------------|------------------------------------------------|-0~-|
-0-----0---------0-----000-|-----------------0000---------00000---------0-0-|-0~-|
 *     *         *     ***                   ****         *****         * *

Gtr 2.                     |(x4) 			                    |
---------------------------|------------------------------------------------|----|
---6p0---6p0-5h6-----------|---------6p0-5h6--------------------6p0-5h6-----|----|
---------------------------|------------------------------------------------|----|
---------------------------|------------------------------------------------|-0~-|
---------------------------|------------------------------------------------|-0~-|
-0-----0---------0-----000-|-----------------0000---------00000---------0-0-|-0~-|
 *     *         *     ***                   ****         *****         * *

Both Gtrs (x2)
---------------------------------|
---------------------------------|
---------------------------------|
-0---------------8---------------|
-0-0000-33333333-8-8888-88888888-|
-0-0000-33333333-8-8888-88888888-|
   **** ********   **** ********

Both Gtrs. (x2)
------------------------------------------------|
------------------------------------------------|
-------------------------------------9/10\9-----|
-00000000000-33333333333-88888888888-x/-x\x-8-7-|
-00000000000-33333333333-88888888888-7/-8\7-8-7-|
-00000000000-33333333333-88888888888--------8-7-|

Gtr 1. (x2)             |(play 1st time only)
------------------------|------------|
------------------------|------------|
------------------------|-9/10\9-----|
-0---------------8------|-x/-x\x-8-7-|
-0-0000-33333333-8-8888-|-7/-8\7-8-7-|
-0-0000-33333333-8-8888-|--------8-7-|
   **** ********   ****

Both Gtrs.
-----------------------------------------------------------------------
-----------------------------------------------------------------------
-----------------------------------------------------------------------
-12\\\-----------------------------------------------------------------
-12\\\-0000--0000-0--0000000--0--0000--0000--0--000000----------0-0000-
-12\\\-0000--0000-0--0000000--0--0000--0000--0--000000--8p0-3b--0-0000-
       ****  **** *  *******  *  ****  ****  *  ******          * ****   
****  ********

----------------------------------|
----------------------------------|
----------------------------------|
----------------------------------|
-------------------0000--00000000-|
--0000000088888888-0000--00000000-|

Gtr 1.
-------(x2)----------|---------|
---------------------|---------|
---------------------|---------|
-8-3-0~--8-0-8-3--0~-|-8-3-0~--|
-8-3-0~--8-0-8-3--0~-|-8-3-0~--|
-8-3-0~--8-0-8-3--0~-|-8-3-0~--|


Gtr 2. (x2)
---------8-----8-----|-8-----8-----8-----|
-5-5-6-5---6-5---6-5-|---6-5---6-5---6-5-|
---------------------|-------------------|
---------------------|-------------------|
---------------------|-------------------|
---------------------|-------------------|

Both Gtrs
----------------(x4)--------------|----|
----------------------------------|----|
----------------------------------|----|
-0---------------8----------------|-0~-|
-0-0000-33333333-8-8888-88888888--|-0~-|
-0-0000-33333333-8-8888-88888888--|-0~-|
   **** ********   **** ********
            
Submit corrections

comments powered by Disqus
↑ Back to top | We Came As Romans Tabs for To Plant A Seed. Lyrics for acoustic guitar and electric guitar. 1 Tablatures and chords are parodies/interpretations of the original songs. You may use it for private study, scholarship, research or language learning purposes only