» » »

To Plant A Seed Tabs (ver.2)

Artists:  A B C D E F G H I J K L M N O P Q R S T U V W X Y Z # 

To Plant A Seed Tabs (ver.2)

We Came As Romans
Rating:
4/5 (5 votes)

Hard to play? Try these video lessons and learn fast.
                
Tuning: Drop D (D A D G B e)

Repeat these two bars twice

          Let these notes ring

e|----------------8----8------|
B|------------6-----6----6----|
G|--------9-9---9-----9----9--|
D|-8-3-0~---------------------|
A|-8-3-0~---------------------|
D|-8-3-0~---------------------|

             Let these ring

e|-----------8----8----8------|
B|-------------6----6----6----|
G|---------------9----9----9--|
D|-8-0-7-3-0------------------|
A|-8-0-7-3-0------------------|
D|-8-0-7-3-0------------------|

End in

e|--------------------|
B|--------------------|
G|--------------------|
D|-8-0-7-3---8-0-7-3--|
A|-8-0-7-3---8-0-7-3--|
D|-8-0-7-3---8-0-7-3--|

e|-----------------------------------|
B|-----------------------------------|
G|-----------------------------------|
D|-----------------------------------|
A|-0-0000---0000-0---000000-88888888-|
D|-0-0000---0000-0---000000-88888888-|
   * ****   **** *   ****** ********

e|-----------------------------------|
B|-----------------------------------|
G|-----------------------------------|
D|-----------------------------------|
A|-0-0000---0000-0---0000000---------|
D|-0-0000---0000-0---0000000-3p0-3^--|
   * ****   **** *   *******

e|--------------------------------------------------|
B|--------------------------------------------------|
G|--------------------------------------------------|
D|--------------------------------------------------|
A|-0-0000---------000000-88888888---0000----0000000-|
D|-0-0000---------000000-88888888---0000----0000000-|
   * ****         ****** ********   ****    *******

Repeat the following two bars four times

e|-------8h10---------------------------|
B|-----------10p8------13--131313131313-|
G|--7h10----------10p9---10101010101010-|
D|--------------------------------------|
A|--------------------------------------|
D|--------------------------------------|


e|-------8h10---------------------|
B|-----------10p8-----------------|
G|--7h10----------10p9-9/10\9-----|
D|---------------------x--x-x-8-7-|
A|---------------------7/-8\7-8-7-|
D|----------------------------8-7-|

Epic part (The 6p0 5h6 on the B string might actually be played as
10p0 9h10 on the G string, but it's easier to play it this way if you
want to play both)

e|--------------------------------------------------------------------|
B|----------6p0-5h6------------6p0-5h6---------------------6p0-5h6----|
G|--7p0h5h7---------7----0h5h7---------------7p0h5h7------------------|
D|--------------------------------------------------------------------|
A|---------------------0----------------0000---------00000---------00-|
D|---------------------0----------------0000---------00000---------00-|
                       *                ****         *****         **

Repeat three times and end in and open D

e|----------------------------------------------|-end-in-|
B|--------6p0-5h6------------------6p0-5h6------|--------|
G|--0h5h7--------------7p0h5h7------------------|--------|
D|----------------------------------------------|---0~---|
A|----------------0000---------0000---------00--|-0-0~---|
D|----------------0000---------0000---------00--|-0-0~---|
                  ****         ****         **    *

Let ring...clean
Repeat 8 times

e|-8----8--------------------------------------|
B|-----------10----10----8----8----------------|
G|---10---10----10----10---10---10-10----10----|
D|------------------------------------10----10-|
A|---------------------------------------------|
D|---------------------------------------------|

Repeat twice

e|----------------------------------------------|
B|----------------------------------------------|
G|----------------------------------------------|
D|-0-----------------------8--------------------|
A|-0-0000-----3333333------8-8888-----8888888---|
D|-0-0000-----3333333------8-8888-----8888888---|
     ****     *******        ****     *******

Repeat 4 times

e|-------8h10---------------------------|
B|-----------10p8------13--131313131313-|
G|--7h10----------10p9---10101010101010-|
D|--------------------------------------|
A|--------------------------------------|
D|--------------------------------------|


e|-------8h10---------------------|
B|-----------10p8-----------------|
G|--7h10----------10p9-9/10\9-----|
D|---------------------x--x-x-8-7-|
A|---------------------7/-8\7-8-7-|
D|----------------------------8-7-|

e|--------------------------------------------------------------|
B|--------------------------------------------------------------|
G|--------------------------------------------------------------|
D|--------------------------------------------------------------|
A|-0-0000---0000-0---0000000---0-0000---0000-0---0000000--------|
D|-0-0000---0000-0---0000000---0-0000---0000-0---0000000-3p0-3^-|
   * ****   **** *   *******   * ****   **** *   *******

e|------------------------------------------------|
B|------------------------------------------------|
G|------------------------------------------------|
D|------------------------------------------------|
A|-0-0000------0000-88888888---0000-------0000000-|
D|-0-0000------0000-88888888---0000-------0000000-|
   * ****      **** ********   ****       *******

Play these two bars twice

          Let these notes ring

e|----------------8----8------|
B|------------6-----6----6----|
G|--------9-9---9-----9----9--|
D|-8-3-0~---------------------|
A|-8-3-0~---------------------|
D|-8-3-0~---------------------|

             Let these ring

e|-----------8----8----8------|
B|-------------6----6----6----|
G|---------------9----9----9--|
D|-8-0-7-3-0------------------|
A|-8-0-7-3-0------------------|
D|-8-0-7-3-0------------------|

end in

e|---------|
B|---------|
G|---------|
D|-8-3-0~--|
A|-8-3-0~--|
D|-8-3-0~--|

Let ring...clean
Repeat 8 times

e|-8----8--------------------------------------|
B|-----------10----10----8----8----------------|
G|---10---10----10----10---10---10-10----10----|
D|------------------------------------10----10-|
A|---------------------------------------------|
D|---------------------------------------------|

Repeat twice

e|----------------------------------------------|
B|----------------------------------------------|
G|----------------------------------------------|
D|-0-----------------------8--------------------|
A|-0-0000-----3333333------8-8888-----8888888---|
D|-0-0000-----3333333------8-8888-----8888888---|
     ****     *******        ****     *******

Play it a bit slower than usual and until the sond ends

e|-------8h10---------------------------|
B|-----------10p8------13--131313131313-|
G|--7h10----------10p9---10101010101010-|
D|--------------------------------------|
A|--------------------------------------|
D|--------------------------------------|
            
Hard to play? Try these video lessons and learn fast. | Correct




comments powered by Disqus
↑ Back to top | Tablatures and chords are parodies/interpretations of the original songs. You may use it for private study, scholarship, research or language learning purposes only