>
 >
Dreams

Dreams Guitar Tabs

We Came As Romans - Dreams chords, tabs, tablatures, lyrics

Guitar lessons | Add/correct | Request | Top 50 tabs Artists:  A B C D E F G H I J K L M N O P Q R S T U V W X Y Z 0-9

Dreams Guitar Tabs – We Came As Romans

CD, Sheet music, Poster

Do you like Dreams? Share with your friends now
Tabs
We Came As Romans - Dreams

Drop D tuning DADGBe


this is my first tab so it's probably not perfect.

i mixed guitar 1 and 2 to make a superior tab!


E|-------------------------------------------------------------------------|
B|-------------------------------------------------------------------------|
G|-------------------------------------------------------------------------|
D|0-----------------------------------10-----------------7-----------------|
A|0-----------------------------------10-----------------7-----------------|
D|0-----------------------------------10-----------------7-----------------|
  .

                                                                         
E|-------------------------------------------------------------------------|
B|-------------------------------------------------------------------------|
G|-------------------------------------------------------------------------|
D|0-0-0-0-0-0-0-0-0-0-0-0-0-0-0-0-10-10-10-10-10-10-10-10-7-7-7-7-7-7-7-7--|
A|0-0-0-0-0-0-0-0-0-0-0-0-0-0-0-0-10-10-10-10-10-10-10-10-7-7-7-7-7-7-7-7--|
D|0-0-0-0-0-0-0-0-0-0-0-0-0-0-0-0-10-10-10-10-10-10-10-10-7-7-7-7-7-7-7-7--|
  . . . . . . . . . . . . . . . .  .  .  .  .  .  .  .  . . . . . . . . .

                                                                         x2
E|-------------------------------------------------------------------------|
B|-------------------------------------------------------------------------|
G|-------------------------------------------------------------------------|
D|0-0-0-0-0-0-0-0-0-0-0-0-0-0-0-0-10-10-10-10-10-10-10-10-7-7-7-7-7-7-7-7--|
A|0-0-0-0-0-0-0-0-0-0-0-0-0-0-0-0-10-10-10-10-10-10-10-10-7-7-7-7-7-7-7-7--|
D|0-0-0-0-0-0-0-0-0-0-0-0-0-0-0-0-10-10-10-10-10-10-10-10-7-7-7-7-7-7-7-7--|
  . . . . . . . . . . . . . . . .

                                                              x2
E|--------------------------------------------------------------|
B|--------------------------------------------------------------|
G|--------------------------------------------------------------|
D|00000-000----00000--00000--1010101010-101010----77777--77777--|
A|00000-000----00000--00000--1010101010-101010----77777--77777--|
D|00000-000----00000--00000--1010101010-101010----77777--77777--|
  ..... ...    .....  .....   . . . . .  . . .    .....  .....


E|-------------------------------------------------|
B|-------------------------------------------------|
G|------------15-14----------------15-14-----------|
D|12-15-------------14-15-12-------------15-14-15--|\
A|------12-13----------------12-13-----------------| \
D|-------------------------------------------------|  \
                                                       \
                                                        x2
                                                        /
E|------------18-17----------------18-17-----------|   /
B|15-18-------------17-18-15-------------18-17-18--|  /
G|------14-15----------------14-15-----------------| /
D|-------------------------------------------------|/
A|-------------------------------------------------|
D|-------------------------------------------------|

E|--------------------------------------------------|
B|--------------------------------------------------|
G|--------------------------------------------------|
D|00000------00000----000--00000------00000----000--|
A|00000------00000----000--00000------00000----000--|
D|00000------00000----000--00000------00000----000--|
  .....      .....    ...  .....      .....    ...

                                          x4
E|--------|---------------------------------|
B|--------|---------------------------------|
G|--------|-----15-14-----------------------|
D|0-------|-000-------14-15-0-------0-------|
A|0-12-13-|-000-------------0-12-13-0-12-13-|
D|0-------|-000-------------0-------0-------|
  .         ...             .       .         

                                         x3   ??
E|---------------------------------|-------|------|
B|---------------------------------|-------|-18//-|
G|----------15-14------------------|-------|------|
D|0-0-0-000-------14-15-0000-12-15-|-------|------|
A|0-0-0-000-------------0000-------|-12-13-|------|
D|0-0-0-000-------------0000-------|-------|------|
  . . . ...             ....


E|----------------------------------------------------------------|
B|----------------------------------------------------------------|
G|-----------------------------------------------------let ring---|
D|0-0-0-000---00000--00000--0-0-0-000---00000--00000-0~~~~~~~~~~~~|
A|0-0-0-000---00000--00000--0-0-0-000---00000--00000-0~~~~~~~~~~~~|
D|0-0-0-000---00000--00000--0-0-0-000---00000--00000-0~~~~~~~~~~~~|
  . . . ...   .....  .....  . . . ...   .....  .....

                                 x3
E|---------------------------------|
B|---------------------------------|
G|---------------------------------|
D|0-0-0-0-0-0-0-0-0-0-00000000000--|
A|0-0-0-0-0-0-0-0-0-0-00000000000--|
D|0-0-0-0-0-0-3-3-3-3-54345434543--|
  . . . . . . . . . . ...........

                         x4
E|-------------------------|
B|-------------------------|
G|-------------------------|
D|00000-000---00000-00000--|
A|00000-000---00000-00000--|
D|00000-000---00000-00000--|
  ..... ...   ..... .....

                                                         x4
E|------|--------------------------------------------------|
B|------|--------------------------------------------------|
G|------|-------------15-14----------------15-14-----------|
D|00-00-|-12-15-------------14-15-12-------------15-14-15--|
A|00-00-|-------12-13----------------12-13-----------------|
D|00-00-|--------------------------------------------------|
  .. ..

                                                                  x4
E|---------------------------------------|--------------------------|
B|---------------------------------------|------6-------------------|
G|---------------------------------------|------9-------------------|
D|0-------0-------0-10-12--10-12--10-12--|23230---23--2323--23232---|
A|0-12-13-0-12-13-0----------------------|-----------------------4--|
D|0-------0-------0----------------------|--------------------------|
  .       .       .


E|------------------------------------------------------------------|
B|------------------------------------------------------------------|
G|------------------------------------------------------------------|
D|------------------------------------------------------------------|
A|5555555555555555888888888888888833333333555555551111111111110000--|
D|------------------------------------------------------------------|

E|----------------------------------------------------------|
B|----------------------------------------------------------|
G|----------------------------------------------------------|
D|0-0-0-0-0-0-0-0-8-8-8-8-8-8-7-7-7-7-3----8-8-8-8-8-7-7-7--|
A|0-0-0-0-0-0-0-0-8-8-8-8-8-8-7-7-7-7-3----8-8-8-8-8-7-7-7--|
D|0-0-0-0-0-0-0-0-8-8-8-8-8-8-7-7-7-7-3----8-8-8-8-8-7-7-7--|
  . . . . . . . . . . . . . . . . . .

                                                 x4
E|------------------------------------------------|
B|------------------------------------------------|
G|------------15-14---------------15-14-----------|
D|12-15-------------14-15-12------------15-14-15--|
A|------12-14----------------12-14----------------|
D|------------------------------------------------|


                         x4
E|-------------------------|
B|-------------------------|
G|-------------------------|
D|00000-000---00000-00000--|
A|00000-000---00000-00000--|
D|00000-000---00000-00000--|
  ..... ...   ..... .....

                                                              x2
E|--------------------------------------------------------------|
B|--------------------------------------------------------------|
G|--------------------------------------------------------------|
D|00000-000----00000--00000--1010101010-101010----77777--77777--|
A|00000-000----00000--00000--1010101010-101010----77777--77777--|
D|00000-000----00000--00000--1010101010-101010----77777--77777--|
  ..... ...    .....  .....





Comments


Popular We Came As Romans tabs & chords
Broken Statues Intro 1 Tabs
Fade Away Tabs
Fade Away 1 Tabs
Glad You Came Tabs
Just Keep Breathing Intro Tabs
My Love Tabs
Shapes Tabs
The Roads That Dont End And The Views That Never Cease Tabs
To Move On Is To Grow Tabs
Understanding What Weve Grown To Be Tabs


Song lyrics



↑ Back to top | Tablatures and chords are parodies/interpretations of the original songs. You may use it for private study, scholarship, research or language learning purposes only
© 2014 AZChords.com Contact us | Privacy policy | DMCA | Add/correct tabs | Request tabs | Top 50 tabs