» » »

Broken Statues Tabs (ver.3)

Artists:  A B C D E F G H I J K L M N O P Q R S T U V W X Y Z # 

Broken Statues Tabs (ver.3)

We Came As Romans
Rating:
0/5 (0 votes)

Tabs too difficult? Try these video lessons and learn fast.
                (Intro)
Well this is all I got so far, so if you know more type it up!

Guitar 1 00:17
|--------13-13-15-12--12-13-10--10-12-8--------------------|
|--10-10--------------------------------8------------------|
|----------------------------------------------------------| x4
|----------------------------------------------------------|
|----------------------------------------------------------|
|----------------------------------------------------------|

00:31
|----------------------------------------------------------|
|----------------------------------------------------------|
|----------------------------------------------------------| x4
|----------------------------------------------------------|
|--0-7-7-7-8---3-----8-8-8-8-12--8-8-8-8-12--7-7-7-8-------|
|--0-------------3-----------------------------------------|

Guitar 2 00:17
|----------------------------------------------------------|
|----------------------------------------------------------|
|--------14-14-15-12--12-14-10--10-12-8--------------------| x4
|--10-10--------------------------------9------------------|
|----------------------------------------------------------|
|----------------------------------------------------------|

Guitar 2 also plays the second part, but only the last 2 plays....
in other words if you are listening to this song, guitar 1 plays 
the second part at 00:31, then the 2nd comes in the 3rd time 
you play it or at 00:38.
            
Tabs too difficult? Try these video lessons and learn fast.




comments powered by Disqus
↑ Back to top | Tablatures and chords are parodies/interpretations of the original songs. You may use it for private study, scholarship, research or language learning purposes only