» » »

We Came As Romans, Broken Statues Tabs (ver.1)

Artists:  A B C D E F G H I J K L M N O P Q R S T U V W X Y Z # 

Broken Statues Tabs (ver.1)

We Came As Romans Tabs
 Rating:
4.4/5 (7 votes)
Broken Statues lessons Tabs too difficult? Try these video lessons and learn fast
1
                


Tunning: D-A-D-G-B-E



All i have for now is one guitar part



` = let ring
* = natural harmonic
/ = slide
. = palm mute
b = bend
h = hammer on
p = pull off
vs = volume swell
x = mute string


0:15
|--------------13-----13/15/12----12/13/10----10/12/8--------|
|--------10-10----10-----------10----------10----------8-----|
|-5b---------------------------------------------------------| 
|-vs---------------------------------------------------------|
|------------------------------------------------------------|
|------------------------------------------------------------|

0:30
|----------------------------------------------------------|
|----------------------------------------------------------|
|----------------------------------------------------------| 
|----------------------------------------------------------|
|--0-7-7-8-----3-3-3----------8-8-12----8h12-7h8-----------|
|--0--------0--------3-3-3-3---------8---------------------|
   .        .



0:43
|-----------------------------------------------------------|
|-----------------------------------------------------------|
|-----------------------------------------------------------| 
|-----------------------------------------------------------|
|-0-----0-0---------0------0--------0-----0--------0------0-|
|-0--2b-0-0--2-0-0--0--0-0-0--2-0-0-0--2b-0--2-0-0-0--0-0-0-|
  .     . .         .      .        .     .        .      .



|----------------------------------------------------------|
|----------------------------------------------------------|
|----------------------------------------------------------| 
|----------------------------------------------------------|
|-------0--0--0--0--0-0---0~--10--8--0~-10--8--------------|
|-2-0-0-0--0--0--0--0-0---0~--10--8--0~-10--8--------------|
        .     .     . .


1:10
|-------------------------------------|
|-------------------------------------|
|-------------------------------------|
|-------------------------------------|
|-0-0-0-0-0-0-0-0-10-10-10-8-8-8-8----|
|-0-0-0-0-0-0-0-0-10-10-10-8-8-8-8----|


|-----------------------------------------------------------|
|-----------------------------------------------------------|
|-----------------------------------------------------------|
|-----------------------------------------------------------|
|-0-0-0-0-0-0-0-0-10-10-10-8-8-8-8-10-10-10-8-8-8-8---------|
|-0-0-0-0-0-0-0-0-10-10-10-8-8-8-8-10-10-10-8-8-8-8---------|



1:25
|-------------------------------------|
|-------------------------------------|
|-------------------------------------|
|-------------------------------------|
|-5-5-5*5*-5-5-5*5*5*5*-5-5-5---------|
|-----5*5*-----5*5*5*5*---------------|



1:28
|--------------------------------------------------------------|
|--------------------------------------------------------------|
|------------------------------------9*9*9*9*------------------|
|------------------------------------9*9*9*9*------------------|
|-0-0-0-0--x-x-x-x--0-0-0---0-0-0-0--9*9*9*9*--0-0-0-----------|
|-0-0-0-0--x-x-x-x--0-0-0---0-0-0-0--9*9*9*9*--0-0-0-----------|
  . . . .           . . .   . . . .            . . . 

|---------------------------------------------------------------|
|---------------------------------------------------------------|
|--------------------------------9*-----------------------------|
|------------------------------9*-------------------------------|
|-0-0-0-0--x-x-x-x-----------9*---0-0-0-0--x-x-x-x--------------|
|-1-1-1-1--x-x-x-x--0-0-0--9*-----1-1-1-1--x-x-x-x--0-0-0-------|                                 
  . . . .                         . . . .



1:41
|----------13----13/15/12----12/13/10----10/12/8--------|
|----10-10----10----------10----------10----------8-----|
|-------------------------------------------------------| 
|-------------------------------------------------------|
|-------------------------------------------------------|
|-------------------------------------------------------|



1:55
|------------------------------------------------------------|
|------------------------------------------------------------|
|------------------------------------------------------------| 
|----7h10--------12p0-7p0-----------------------7h10-5h7-----|
|-0-------7h8-0------------7h8--0-0-----7h8-0-0--------------|
|-0-----------0-----------------0-0-7h10----0-0--------------|
  .           .                 . .         . .

|-------------------------|
|-------------------------|
|-------------------------|
|-12--10--7---------------|
|-------------------------|
|-------------------------|




2:22
|------------------------------------------------------------|
|------------------------------------------------------------|
|-----------------------14/12/9------------------------------| 
|-----------------------x--x--x------------------------------|
|-00000000----888-8-8---12/10/7------------------------------|
|-00000000----888-8-8----------------------------------------|
  ........    ... . .       

|------------------------------------------------------------|
|------------------------------------------------------------|
|------------------------------------------------------------| 
|------------------------------------------------------------|
|-00000000----888-8-8----------------------------------------|
|-00000000----888-8-8---0-3h5--------------------------------|
  ........    ... . .       




2:39
|----------------------------------------------------------------|
|----------------------------------------------------------------|
|----------------------------------------------------------------|
|----------------------------------------------------------------|
|-0-0-0-0-0-0-0-0-3-3-3-3-3-3-3-3-8-8-8-8-8-8-8-8-5-5-5-5-5-5-5-5|
|-0-0-0-0-0-0-0-0-3-3-3-3-3-3-3-3-8-8-8-8-8-8-8-8-5-5-5-5-5-5-5-5|






3:07
|----------13----13/15/12----12/13/10----10/12/8--------|
|----10-10----10----------10----------10----------8-----|
|-------------------------------------------------------| 
|-------------------------------------------------------|
|-------------------------------------------------------|
|-------------------------------------------------------|
            
Submit corrections

comments powered by Disqus
↑ Back to top | We Came As Romans Tabs for Broken Statues. Lyrics for acoustic guitar and electric guitar. 1 Tablatures and chords are parodies/interpretations of the original songs. You may use it for private study, scholarship, research or language learning purposes only