» » »

Beliefs Bass tabs (ver.1)

Artists:  A B C D E F G H I J K L M N O P Q R S T U V W X Y Z # 

Beliefs Bass tabs (ver.1)

We Came As Romans
Rating:
0/5 (0 votes)

Hard to play? Try these video lessons and learn fast.
                We Came As Romans
Tuning: Drop D (DADG)

I learned this by ear, it sounds accurate when I play it. I'm not

the best at making tabs, but I think I got the notes right, you'll have to

figure out the beat/rhythm on your own.


G|----------------------------------------------------------|
D|-------------------------------------------3--------------|
A|-0~~~~5-5-353-0~~~~-----------0~~~~5-5-353--3-------------|
D|--------------------7-5-3-03~-----------------030-050-070-|

G|-------------------------|
D|-------------------------|
A|-0~~888--00-00~~88808~~--|
D|-------------------------|x4

G|-------------------------------------------------|
D|-------------------------------------------------|
A|-0~~~~~~~~---------0000000000000000--------------|
D|----------3~~~~~~~~----------------3333333333333-|

G|------------------------------------|
D|------------------------------------|
A|-00000000333353-000078888-000078888-|
D|------------------------------------|x2

G|------------------------------------------------------------------------------------------|
D|------------------------------------------------------------------------------------------|
A|-000--000-000----------------000--000-000----------------------------------000---Continue-|
D|---------------333--333-333-----------------333--333-333-8\0---0---000-000----------------|

-------------------------------------------------------------------------------|
-------------------------------------------------------------------------------|
------------------000-0-----------------000------------------000-0-------------|
-0---0---000-000-----0--0~~~0~~~000-000-----0---0---000-000-----0--0~~~~~~~~~~~|

[PAUSE]

G|--------------------|
D|--------------------|
A|--------------------|
D|-000-0000--0000-0-0-|x4

G|----------------------------|
D|----------------------------|
A|--5-5-5-7-7-7-3-3-3-3/8\7\5-|
D|-0--------------------------|x4

G|---------------------|
D|---------------------|
A|---------------------|
D|-00-0-0003b-0000-0-0-|

G|--------------------|
D|--------------------|
A|--------------------|
D|-000-0-000-0000-0-0-|x2

G|-------------------------------------------------|
D|-------------------------------------------------|
A|---55-55-55---55-55-55-3---------------------875-|
D|-0----------0------------0-77-77-77-0-77-778-----|x2

G|------------------|
D|------------------|
A|------------------|
D|-0-0~~000--000--0-|x4

G|----------------------------------------------------|
D|----------------------------------------------------|
A|---7-7-7873------------------7-7-7873---------------|
D|-7\---------3~~23-3-3-3p2--7\---------3~~23-3-3-2p3-|

G|---------------------------------------------|
D|---------------------------------------------|
A|-0000000033333333---------------(0~~~)end on-|
D|-----------------3333333333333333------------|x5
            
Hard to play? Try these video lessons and learn fast. | Correct




comments powered by Disqus
↑ Back to top | Tablatures and chords are parodies/interpretations of the original songs. You may use it for private study, scholarship, research or language learning purposes only