» » »

We Butter The Bread With Butter, Superfohn Bananendate Tabs (ver.1)

Artists:  A B C D E F G H I J K L M N O P Q R S T U V W X Y Z # 

Superfohn Bananendate Tabs (ver.1)

We Butter The Bread With Butter Tabs
Rating:
4/5 (1 vote)
Superfohn Bananendate lessons Tabs too difficult? Try these video lessons and learn fast
                We Butter The Bread With Butter
Der Tag an dem die Welt Unterging

Drop C Tuning: C-G-C-F-A-D(low to high)

Some of the keyboard is transposed for the guitar. Keyboard has some delay. I only
have guitar 1 and the keyboard
~=hold note
== means tremolo pick
listen for timing

(keyboard)
D-10-10-10---13-13-13-18-17-17----18-15-15----17------------------------|
A---------10-------------------13----------11---------------------------|
F-----------------------------------------------------------------------|
C-----------------------------------------------------------------------|   x2
G-----------------------------------------------------------------------|
C-----------------------------------------------------------------------|

(starts the second time the keyboard plays)
D-12h13~-~-~-~-~-~-~-~-~-~-~-~-~-~-~-~-~-~-~-~-~-~--------------------|
A---------------------------------------------------------------------|
F---------------------------------------------------------------------|
C---------------------------------------------------------------------|
G---------------------------------------------------------------------|
C---------------------------------------------------------------------|




D----------------------------------------------------------------------------|
A----------------------------------------------------------------------------|
F-----------------3-3-3-3-3-3-3-3--------------------------------------------|
C-0-0-0-0-0-0-0-0-3-3-3-3-3-3-3-3-3-3-3-3-3-3-3-3-5-5-5-5-5-5-5-5------------|  x2
G-0-0-0-0-0-0-0-0-1-1-1-1-1-1-1-1-3-3-3-3-3-3-3-3-3-3-3-3-3-3-3-3------------|
C-0-0-0-0-0-0-0-0-----------------3-3-3-3-3-3-3-3-2-2-2-2-2-2-2-2------------|

D-----------------------------------------------
A-----------------------------------------------   \
F-----------------------------------------------    \
C-------33333-22222-33333------33333-22222-33333     \
G-------------------------11111-----------------      \
C-00000-----------------------------------------      x2
                                                      /
D-------------------------------------------------   /
A-------------------------------------------------  / 
F------------------------------------------------- /   
C------77777-55555-77777------77777-55555-33333---  
G------------------------33333--------------------
C-33333-------------------------------------------


D-----------------------------------------------------|
A-----------------------------------------------------|
F-----------------------------------------------------|
C-----------------------------------------------------|        x2
G-000-0-0--000-0-0-0-0-0000---------------------------|
C-000-0-0--000-0-0-0-0-0000---------------------------|

D--------------------------------|
A--------------------------------|
F------10--9-10-9----------------|
C-12-12--12-------12-12----------| x4
G--------------------------------|
C--------------------------------|

D--------------------------------|
A--------------------------------|
F------15--14--12\10-------------|
C-12-12--12--12------------------| x2
G--------------------------------|
C--------------------------------|

D-----------------------------|
A-----------------------------|
F------10--9-10-9-------------|
C-11-11--11-------------------| x2
G-----------------------------|
C-----------------------------|

D------------------------------------------|
A-15~~~-17-18-20-22-18-20-22-18-20-18-17---|
F---------------------------------------18-|
C------------------------------------------|
G------------------------------------------|
C------------------------------------------|

D------------------------------------|
A------------------------------------|
F------14--14--14--14--14--14--14----|
C-15-15--15--15--15--15--15--15--15--|
G------------------------------------|
C------------------------------------|

D------------------------------------|
A------------------------------------|
F------15--15--15--15--15--15--15----|
C-15-15--15--15--15--15--15--15--15--|
G------------------------------------|
C------------------------------------|

D------------------------------------|
A------------------------------------|
F------14--14--14--14--14--14--14----|
C-15-15--15--15--15--15--15--15--15--|
G------------------------------------|
C------------------------------------|

D---------------------------------------|
A---------------------------------------|
F---------------------------------------|
C------12--12--12--12--12--12--12-------|
G-14-14--14--14--14--14--14--14--14-----|
C---------------------------------------|

D---------------------------|
A---------------------------|
F---------------------------|
C---------------------------|
G-15==-17==-18==-22==-------|
C---------------------------|

D---------------------------------------------|
A---------------------------------------------|
F---------------------------------------------|
C-----------------------0~~~~~~---------------|
G----1==----------------0~~~~~~---------------|
C-0==---3-333-3-3-2-2==-0~~~~~~---------------|

D----------------------------------------|
A----------------------------------------|
F----------------------------------------|
C-15-15-15-14-14-----15-15-15-14-14------|
G---------------14-14--------------14-14-|
C----------------------------------------|

D-------------------------------------------|
A-------------------------------------------|
F-------------------------------------------|
C-19-19-19-17-17-15-15-19-19-19-17-17-15-15-|
G-------------------------------------------|
C-------------------------------------------|

D-------------------------|
A-------------------------|
F-------------------------|
C-22==-20==19==-----------|
G-------------------------|
C-------------------------|

D-------13-15-17-15-13-15-17-15-13-15-13-12--------|
A-15~~~--------------------------------------------|
F--------------------------------------------------|
C--------------------------------------------------| x2
G--------------------------------------------------|(not sure of notes, but
C--------------------------------------------------|close)

D---------|
A---------|
F---------|
C-0-------|
G-0-------|
C-0-------|


(keyboard)
D-10-10-10---13-13-13-18|-17-17----18|-15-15----17|---------------------|
A---------10|-------------------13----------11--------------------------|
F-----------------------------------------------------------------------|
C-----------------------------------------------------------------------|   x2
G-----------------------------------------------------------------------|
C-----------------------------------------------------------------------|
after every |, play pevious part twice

D----------------------------------------------------|
A----------------------------------------------------|
F----------------------------------------------------|
C---------------------------------------0h2h3--------|
G---------3-1--3-1-0---------------------------------|
C-0--0-2-3----------3-5--3-2-0-5-2--3-2--------------|


(keyboard)
D-10-10-10---13-13-13-18-17-17----18-15-15----17---------------------|
A---------10-------------------13----------11------------------------|
F--------------------------------------------------------------------|
C--------------------------------------------------------------------|
G--------------------------------------------------------------------|
C--------------------------------------------------------------------|

fades out
THE END
            

comments powered by Disqus
↑ Back to top | We Butter The Bread With Butter Tabs for Superfohn Bananendate. Lyrics for acoustic guitar and electric guitar. Tablatures and chords are parodies/interpretations of the original songs. You may use it for private study, scholarship, research or language learning purposes only