» » »

We Butter The Bread With Butter, Superfhn Bananendate Bass tabs (ver.1)

Artists:  A B C D E F G H I J K L M N O P Q R S T U V W X Y Z # 

Superfhn Bananendate Bass tabs (ver.1)

We Butter The Bread With Butter Tabs
Rating:
0/5 (0 votes)
Superfhn Bananendate lessons Tabs too difficult? Try these video lessons and learn fast
                it's basically right ;]

F|--------------------------------|
C|-0~-----------------------------|
G|----3~----3~--------------------|
C|-------3~-----------------------|

F|-----------------------------------------------------------------|
C|-----------------------------------------------------------------|   x2
G|-----------------1-1-1-1-1-1-1-1-----------------3-3-3-3-3-3-3-3-|
C|-0-0-0-0-0-0-0-0-----------------3-3-3-3-3-3-3-3-----------------|

F|----------------------------------------------------------------------|
C|-0000333322223333----333322223333-3333777755557777----777755553333----|x2
G|-----------------1111-----------------------------3333----------------|
C|----------------------------------------------------------------------|

F|------------------------------------------------------|
C|------------------------------------------------------|
G|------------------------------------------------------|
C|-000-00--000-00-000--000-00-000-00--000-00-000--------|

F|------------------------------------------------------|
C|------------------------------------------------------|
G|-4444-44--444-----------------------------------------|
C|--------------000-00-000-000-00-000-00-000-00-0--0--0-|

F|--------------------------------------------|
C|--------------------------------------------|
G|-4--4444-4~---------------------------------|
C|------------0-0-0-0-0-0-0-0-0-0-0-0-0-0-0-0-|

F|-----------------------------------------------------------------|
C|-----------------------------------------------------------------|
G|-----------------------------------------------------------------|
C|-5-5-5-5-5-5-5-5-5-5-5-5-5-5-5-5-1-1-1-1-1-1-1-1-1-1-1-1-1-1-1-1-|

F|------------------------------------------------------|
C|------------------------------------------------------|
G|-0-0-0-0-0-0-0-0-0-0-0-0-0-0-0-0----------------------|
C|---------------------------------0000000000000000(x2)-|

F|----------------------------------------------------------------|
C|----------------------------------------------------------------|
G|----------------------1111111111111111(x2)-0000000000000000(x2)-|
C|-5555555555555555(x2)-------------------------------------------|

F|--------------------------------------------------|
C|--------------------------------------------------| x2
G|--------------------------------------------------|
C|-222-222--222-22-2-222-2-222--222-222-222--222-22-|

F|-------------|
C|-------------|
G|-------------|
C|-0~--5~--1~--| 
F|------------------------------------------------------------|
C|------------------------------------------------------------|
G|-----------------1-1-1-1-1-1-1-1-3-3333-3--3-3--------------| x2
C|-0-0-0-0-0-0-0-0-------------------------------3--3333-3--3-| 

F|-------------------------------------|
C|-------------------------------------|
G|-------------------------------------|
C|-0~--1~--10-10-10-10-10-10-10-10[x3]-|

F|----------------------------|
C|----------------------------|
G|----------------------------|
C|-1~-0~-5~-3~-2~-0~-5~-3~-2~-| 

F|--------------------------------------------------|
C|--------------------------------------------------|
G|----------------1---1-0-----------------------0-1-|
C|-0------0-2-3-5---------5-3-3---5-3-2-0--0-2-0----| 

 END
            
Submit corrections

comments powered by Disqus
↑ Back to top | We Butter The Bread With Butter Bass for Superfhn Bananendate. Lyrics for acoustic guitar and electric guitar. Tablatures and chords are parodies/interpretations of the original songs. You may use it for private study, scholarship, research or language learning purposes only