» » »

We Butter The Bread With Butter, Hansel Und Gretel Tabs (ver.1)

Artists:  A B C D E F G H I J K L M N O P Q R S T U V W X Y Z # 

Hansel Und Gretel Tabs (ver.1)

We Butter The Bread With Butter Tabs
 Rating:
4.2/5 (5 votes)
Hansel Und Gretel lessons Tabs too difficult? Try these video lessons and learn fast
1
                We Butter The Bread With Butter


C Tuning: C,G,C,F,A,D

Intro
||-----------------||
||-----------------||
||-----------------||
||-8~--7~--5~--0~--||
||-8~--7~--5~--0~--||
||-8~--7~--5~--0~--||

||--------------------------------------------------|
||--------------------------------------------------|
||--------------------------------------------------|
||--------------------------------------------------|
||-----13131313----10101010----13131313----12121212-|
||-8888--------8888--------8888--------8888---------|

|----------------------------------------------|
|----------------------------------------------|
|----------------------------------------------|
|----------------------------------------------|
|-----12121212----8888----12121212----13131313-|
|-7777--------7777----7777--------7777---------|

|-----------------------------------------------||
|-----------------------------------------------||
|-----------------------------------------------||
|-----------------------------------------------||
|-----10101010----7777-----10101010----12121212-||
|-5555--------5555-----5555--------5555---------||

|----------------------------------||
|----------------------------------||
|----------------------------------||
|----------------------------------||
|-----888877775555----555544445555-||
|-0000------------5555-------------|| 2x

  Last one go slower
||----------------------------------|| 
||----------------------------------||
||----------------------------------||
||----------------------------------||
||-0-0-0-0-0-0-0--0-0-0-0-0-0-0-0-0-||
||-0-0-0-0-0-0-0--0-0-0-0-0-0-0-0-0-|| 4x
   . . . . . . . .  . . . . . . . .

||------------------------------------------------------||
||------------------------------------------------------||
||------------------------------------------------------||
||-8-8---8-8-8-8--8-8-8-8--8-8---8-8-8-8--8-8-8-8--8-8<-||
||-8-8---8-8-8-8--8-8-8-8--8-8---8-8-8-8--8-8-8-8--8-8<-||
||-8-8---8-8-8-8--8-8-8-8--8-8---8-8-8-8--8-8-8-8--8-8<-||
   . .   . . . .  . . . .  . .   . . . .  . . . .     

||----------------------------------------------|
||----------------------------------------------|
||----------------------------------------------|
||----------------------------------------------|
||-----12121212----8888----12121212----13131313-|
||-7777--------7777----7777--------7777---------|

|-----------------------------------------------||
|-----------------------------------------------||
|-----------------------------------------------||
|-----------------------------------------------||
|-----10101010----7777-----10101010----12121212-||
|-5555--------5555-----5555--------5555---------||

|----------------------------------||
|----------------------------------||
|----------------------------------||
|----------------------------------||
|-----888877775555----555544445555-||
|-0000------------5555-------------||

||--------------------------------------------------|
||--------------------------------------------------|
||--------------------------------------------------|
||--------------------------------------------------|
||-----13131313----10101010----13131313----12121212-|
||-8888--------8888--------8888--------8888---------|

|----------------------------------------------|
|----------------------------------------------|
|----------------------------------------------|
|----------------------------------------------|
|-----12121212----8888----12121212----13131313-|
|-7777--------7777----7777--------7777---------|

|-----------------------------------------------||
|-----------------------------------------------||
|-----------------------------------------------||
|-----------------------------------------------||
|-----10101010----7777-----10101010----12121212-||
|-5555--------5555-----5555--------5555---------||

|----------------------------------||
|----------------------------------||
|----------------------------------||
|----------------------------------||
|-----888877775555----555544445555-||
|-0000------------5555-------------||

||-----------------------------------------------------||
||-----------------------------------------------------||
||-----------------------------------------------------||
||-----------------------------------------------------||
||-----------------------------------------------------||
||-000000000000--0-0-0-0-0-0-000000000000--0-0-0-4-3-1-||
   ............  . . . . . . ............  . . . . . .

||----------------------12-------------------------------||
||----------------------16-------------------------------||
||-------------------------------------------------------||
||-------------------------------------------------------||
||-000000000000~--0-0-0----0-0-000000000000--0-0-0-4-3-1-||
||-000000000000~--0-0-0----0-0-000000000000--0-0-0-4-3-1-||
   ............   . . .    . . ............  . . . . . .

||---||----------------------------------||
||---||----------------------------------||
||---||----------------------------------||
||---||----------------------------------||
||-0-||-0-0-0-0-0-0-0-0--0-0-0-0-0-0-0-0-||
||-0-||-0-0-0-0-0-0-0-0--0-0-0-0-0-0-0-0-|| 2x
   .    . . . . . . . .  . . . . . . . .

||------------------------------------------|
||------------------------------------------|
||------------------------------------------|
||-8~-0~----------------7~-0~---------------|
||-8~-0~-0-0-0-0-0-0-0--7~-0~-0-0-0-0-0-0-0-|
||-8~-0~-0-0-0-0-0-0-0--7~-0~-0-0-0-0-0-0-0-|
         . . . . . . .        . . . . . . .

|------------------------------------------||
|------------------------------------------||
|------------------------------------------||
|-5~-0~----------------0~---------------0~-||
|-5~-0~-0-0-0-0-0-0-0--0~-0-0-0-0-0-0-0-0~-||
|-5~-0~-0-0-0-0-0-0-0--0~-0-0-0-0-0-0-0-0~-||
        . . . . . . .     . . . . . . .

Please Rate!
            
Submit corrections

comments powered by Disqus
↑ Back to top | We Butter The Bread With Butter Tabs for Hansel Und Gretel. Lyrics for acoustic guitar and electric guitar. 1 Tablatures and chords are parodies/interpretations of the original songs. You may use it for private study, scholarship, research or language learning purposes only