>
 >
Fuchs Du Hast Die Gans Gestohlen

Fuchs Du Hast Die Gans Gestohlen Guitar Tabs

We Butter The Bread With Butter - Fuchs Du Hast Die Gans Gestohlen chords, tabs, tablatures, lyrics

Guitar lessons | Add/correct | Request | Top 50 tabs Artists:  A B C D E F G H I J K L M N O P Q R S T U V W X Y Z 0-9

Fuchs Du Hast Die Gans Gestohlen Guitar Tabs – We Butter The Bread With Butter

CD, Sheet music, Poster

Do you like Fuchs Du Hast Die Gans Gestohlen? Share with your friends now
Tabs
We Butter The Bread With Butter - Fuchs Du hast die Gans Gestohlen

Lead Guitar
This song is supposed to be in Drop C.
If you have a capo, just put it on the first fret and it will be like
if you're playing in Drop C. That way you can just open fret the 1s

Drop B
1 - Db      4 - B
2 - Ab      5 - Gb
3 - E       6 - B

(if using a capo play this for the main riff on the 5th string instead of 
playing on the 4th string)
|---------6-6-6-6-9-9-9-9-|---------6-6-6-6-9-9-9-9-6-6-6-6-9-9-9-9-|


|-------------------------|-----------------------------------------|
|-------------------------|-----------------------------------------|
|-------------------------|-----------------------------------------|
|---------1-1-1-1-4-4-4-4-|---------1-1-1-1-4-4-4-4-1-1-1-1-4-4-4-4-|
|-------------------------|-----------------------------------------|
|-1-1-1-1-----------------|-1-1-1-1---------------------------------|

|------------------------------|------------------------------------------------|
|------------------------------|------------------------------------------------|
|------------------------------|------------------------------------------------|
|------------------------------|------------------------------------------------|
|----------8-8-8-8-11-11-11-11-|---------9-9-9-9-12-12-12-12-9-9-9-9-12-12-12-12|
|-8-8-8-8----------------------|-8-8-8-8----------------------------------------|

|-------------------------|-----------------------------------------|
|-------------------------|-----------------------------------------|
|-------------------------|-----------------------------------------|
|---------1-1-1-1-4-4-4-4-|---------1-1-1-1-4-4-4-4-1-1-1-1-4-4-4-4-|
|-------------------------|-----------------------------------------|
|-1-1-1-1-----------------|-1-1-1-1---------------------------------|

|----------------------------------|-------------------------|
|----------------------------------|-------------------------|
|----------------------------------|-------------------------|
|----------------------------------|-------------8-8-8-9-9-9-|
|-------14-14-14-13-13-13-11-11-11-|-------9-9-9-------------|
|-9-9-9----------------------------|-6-6-6-------------------|

|-------------------------|-----------------------------------------|
|-------------------------|-----------------------------------------|
|-------------------------|-----------------------------------------|
|---------1-1-1-1-4-4-4-4-|---------1-1-1-1-4-4-4-4-1-1-1-1-4-4-4-4-|
|-------------------------|-----------------------------------------|
|-1-1-1-1-----------------|-1-1-1-1---------------------------------|

|------------------------------|------------------------------------------------|
|------------------------------|------------------------------------------------|
|------------------------------|------------------------------------------------|
|------------------------------|------------------------------------------------|
|----------8-8-8-8-11-11-11-11-|---------9-9-9-9-12-12-12-12-9-9-9-9-12-12-12-12|
|-8-8-8-8----------------------|-8-8-8-8----------------------------------------|

|-----------------------------------------------------|
|-----------------------------------------------------|
|-----------------------------------------------------|
|-----------------------------------------------------|
|-1-1-1-1-1-1-1-1-1----1-1-1-1-1-1-1-1-1-1-1-1-1----1-|
|-1-1-1-1-1-1-1-1-1----1-1-1-1-1-1-1-1-1-1-1-1-1----1-|
  . . . . . . . . .    . . . . . . . . . . . . .    .

|----------------------------------|-------------------------|
|----------------------------------|-------------------------|
|----------------------------------|-------------------------|
|----------------------------------|-------------8-8-8-9-9-9-|
|-------14-14-14-13-13-13-11-11-11-|-------9-9-9-------------|
|-9-9-9----------------------------|-6-6-6-------------------|

|-------------------------|----------------------------|
|-------------------------|----------------------------|
|-------------------------|----------------------------|
|-----1---4---1-1-4-1-1-4-|----------------------------|
|-------------------------|-----8---11---9-9-13-9-9-13-|
|-1-1---1---1-------------|-8-8---8----8---------------|

|-------------------------|----------------------------------|-------------------------|
|-------------------------|----------------------------------|-------------------------|
|-------------------------|----------------------------------|-------------------------|
|-----1---4---1-1-4-1-1-4-|----------------------------------|-------------8-8-8-9-9-9-|
|-------------------------|-------14-14-14-13-13-13-11-11-11-|-------9-9-9-------------|
|-1-1---1---1-------------|-9-9-9----------------------------|-6-6-6-------------------|

|---------------------------------------------------------|
|---------------------------------------------------------|
|---------------------------------------------------------|
|---------------------------------------------------------|
|-6-6-6-6-9-9-9-9-8-8-8-8-6-6-6-6-5-5-5-5-8-8-8-8-6-6-6-6-|
|---------------------------------------------------------|

||-----------------------------------------------------||
||-----------------------------------------------------||
||-----------------------------------------------------||
||-----------------------------------------------------||
||-1-1-1-1-1-1-1-1-1----1-1-1-1-1-1-1-1-1-1-1-1-1----1-||
||-1-1-1-1-1-1-1-1-1----1-1-1-1-1-1-1-1-1-1-1-1-1----1-|| 3x
   . . . . . . . . .    . . . . . . . . . . . . .    .

|----------------------------------|-------------------------|
|----------------------------------|-------------------------|
|----------------------------------|-------------------------|
|----------------------------------|-------------8-8-8-9-9-9-|
|-------14-14-14-13-13-13-11-11-11-|-------9-9-9-------------|
|-9-9-9----------------------------|-6-6-6-------------------|

||-----------------------------------------------------||
||-----------------------------------------------------||
||-----------------------------------------------------||
||-----------------------------------------------------||
||-1-1-1-1-1-1-1-1-1----1-1-1-1-1-1-1-1-1-1-1-1-1----1-||
||-1-1-1-1-1-1-1-1-1----1-1-1-1-1-1-1-1-1-1-1-1-1----1-|| 3x
   . . . . . . . . .    . . . . . . . . . . . . .    .

|----------------------------------|-------------------------|
|----------------------------------|-------------------------|
|----------------------------------|-------------------------|
|----------------------------------|-------------8-8-8-9-9-9-|
|-------14-14-14-13-13-13-11-11-11-|-------9-9-9-------------|
|-9-9-9----------------------------|-6-6-6-------------------|

|---------|----------------------------|
|---------|----------------------------|
|---------|----------------------------|
|--9---6--|-1----1--1------------------|
|--9---6--|-1----1--1--1-1-1-1-1-1-1-1-|
|--9---6--|-1----1--1--1-1-1-1-1-1-1-1-|
            .    .  .  . . . . . . . .

||----------------------------|-------------------------|
||----------------------------|-------------------------|
||----------------------------|-------------------------|
||----------------------------|-------------8-8-8-9-9-9-|
||-------9-9-9-13-13-13-9-9-9-|-------9-9-9-------------|
||-9-9-9----------------------|-6-6-6-------------------|

|-------------------------------------------||
|-------------------------------------------||
|-------------------------------------------||
|-------------------------------------------||
|-6-6-6-5-5-5-6-6-6-8-8-8-6-6-6-5-5-5-------||
|-------------------------------------8-8-8-||3x

|------------------------------|--------------------------------|------------------------------|
|------------------------------|--------------------------------|------------------------------|
|------------------------------|--------------------------------|------------------------------|
|------------------------------|--------------------------------|------------------------------|
|--1----1-1-1-1-1---1-1---1-1--|--1----1-1-1-1-1---1---1-1-1-1--|--1----1-1-1-1-1---1-1---1-1--|
|--1----1-1-1-1-1---1-1---1-1--|--1----1-1-1-1-1---1---1-1-1-1--|--1----1-1-1-1-1---1-1---1-1--|
   .    . . . . .   . .   . .     .    . . . . .   .   . . . .     .    . . . . .   . .   . .

|---------|  ||------------------------------|--------------------------------|
|---------|  ||------------------------------|--------------------------------|
|---------|  ||------------------------------|--------------------------------|
|---------|  ||------------------------------|--------------------------------|
|--12\\\--|  ||--1----1-1-1-1-1---1-1---1-1--|--1----1-1-1-1-1---1---1-1-1-1--|
|--12\\\--|  ||--1----1-1-1-1-1---1-1---1-1--|--1----1-1-1-1-1---1---1-1-1-1--|
                 .    . . . . .   . .   . .     .    . . . . .   .   . . . .

|------------------------------|----------------------------------||
|------------------------------|----------------------------------||
|------------------------------|----------------------------------||
|------------------------------|----------------------------------||
|--1----1-1-1-1-1---1-1---1-1--|--1----1-1-1-1---6h9p6h9p5h8p5h8--||
|--1----1-1-1-1-1---1-1---1-1--|--1----1-1-1-1--------------------||2x
   .    . . . . .   . .   . .     .    . . . .

|-------------------------|-----------------------------------------|
|-------------------------|-----------------------------------------|
|-------------------------|-----------------------------------------|
|---------1-1-1-1-4-4-4-4-|---------1-1-1-1-4-4-4-4-1-1-1-1-4-4-4-4-|
|-------------------------|-----------------------------------------|
|-1-1-1-1-----------------|-1-1-1-1---------------------------------|

|------------------------------|------------------------------------------------|
|------------------------------|------------------------------------------------|
|------------------------------|------------------------------------------------|
|------------------------------|------------------------------------------------|
|----------8-8-8-8-11-11-11-11-|---------9-9-9-9-12-12-12-12-9-9-9-9-12-12-12-12|
|-8-8-8-8----------------------|-8-8-8-8----------------------------------------|

|-------------------------|-----------------------------------------|
|-------------------------|-----------------------------------------|
|-------------------------|-----------------------------------------|
|---------1-1-1-1-4-4-4-4-|---------1-1-1-1-4-4-4-4-1-1-1-1-4-4-4-4-|
|-------------------------|-----------------------------------------|
|-1-1-1-1-----------------|-1-1-1-1---------------------------------|

|----------------------------------|-------------------------|
|----------------------------------|-------------------------|
|----------------------------------|-------------------------|
|----------------------------------|-------------8-8-8-9-9-9-|
|-------14-14-14-13-13-13-11-11-11-|-------9-9-9-------------|
|-9-9-9----------------------------|-6-6-6-------------------|

|-------------------------|-----------------------------------------|
|-------------------------|-----------------------------------------|
|-------------------------|-----------------------------------------|
|---------1-1-1-1-4-4-4-4-|---------1-1-1-1-4-4-4-4-1-1-1-1-4-4-4-4-|
|-------------------------|-----------------------------------------|
|-1-1-1-1-----------------|-1-1-1-1---------------------------------|

|------------------------------|------------------------------------------------|
|------------------------------|------------------------------------------------|
|------------------------------|------------------------------------------------|
|------------------------------|------------------------------------------------|
|----------8-8-8-8-11-11-11-11-|---------9-9-9-9-12-12-12-12-9-9-9-9-12-12-12-12|
|-8-8-8-8----------------------|-8-8-8-8----------------------------------------|

|-----------------------------------------------------|
|-----------------------------------------------------|
|-----------------------------------------------------|
|-----------------------------------------------------|
|-1-1-1-1-1-1-1-1-1----1-1-1-1-1-1-1-1-1-1-1-1-1----1-|
|-1-1-1-1-1-1-1-1-1----1-1-1-1-1-1-1-1-1-1-1-1-1----1-|
  . . . . . . . . .    . . . . . . . . . . . . .    .

|----------------------------------|-------------------------|
|----------------------------------|-------------------------|
|----------------------------------|-------------------------|
|----------------------------------|-------------8-8-8-9-9-9-|
|-------14-14-14-13-13-13-11-11-11-|-------9-9-9-------------|
|-9-9-9----------------------------|-6-6-6-------------------|

                    (solo)
|------------------|--18-----------------------------|
|--5---5-4/5/6-----|-----16-19----16-----------------|
|--8---8-7/8/9-----|-----------15-------15-----------|
|---------------3--|-----------------16----16----13--|
|---------------7--|--------------------------17-----|
|------------------|---------------------------------|

|--16-----------------------------|------------------------------------|
|-----15-18----15-----------------|------------------------------------|
|-----------13-------13-----------|--15--------------------------------|
|-----------------15----15-12-----|-----13-16----13--------------------|
|-----------------------------13--|-----------13----13----13-----------|
|---------------------------------|--------------------16----16-15-13--|

|-------------------------------|---------|----------|
|-------------------------------|--14b15--|--18b19r--|
|-------------------------------|---------|----------|
|--12b13r-12-13-12--------------|---------|----------|
|------------------13-13-12-13--|---------|----------|
|-------------------------------|---------|----------|

||-------------------------|-----------------------------------------|
||-------------------------|-----------------------------------------|
||-------------------------|-----------------------------------------|
||---------1-1-1-1-4-4-4-4-|---------1-1-1-1-4-4-4-4-1-1-1-1-4-4-4-4-|
||-------------------------|-----------------------------------------|
||-1-1-1-1-----------------|-1-1-1-1---------------------------------|

|------------------------------|------------------------------------------------|
|------------------------------|------------------------------------------------|
|------------------------------|------------------------------------------------|
|------------------------------|------------------------------------------------|
|----------8-8-8-8-11-11-11-11-|---------9-9-9-9-12-12-12-12-9-9-9-9-12-12-12-12|
|-8-8-8-8----------------------|-8-8-8-8----------------------------------------|

|-------------------------|-----------------------------------------|
|-------------------------|-----------------------------------------|
|-------------------------|-----------------------------------------|
|---------1-1-1-1-4-4-4-4-|---------1-1-1-1-4-4-4-4-1-1-1-1-4-4-4-4-|
|-------------------------|-----------------------------------------|
|-1-1-1-1-----------------|-1-1-1-1---------------------------------|

|----------------------------------|-------------------------||
|----------------------------------|-------------------------||
|----------------------------------|-------------------------||
|----------------------------------|-------------8-8-8-9-9-9-||
|-------14-14-14-13-13-13-11-11-11-|-------9-9-9-------------||
|-9-9-9----------------------------|-6-6-6-------------------||2x

|----------------------------------|---------|
|----------------------------------|---------|
|----------------------------------|---------|
|----------------------------------|---------|
|--1----1-1-1-1-1---1-1---1-1---1--|--12\\\--|
|--1----1-1-1-1-1---1-1---1-1---1--|--12\\\--|
   .    . . . . .   . .   . .   .
 
||------------------------------|--------------------------------|
||------------------------------|--------------------------------|
||------------------------------|--------------------------------|
||------------------------------|--------------------------------|
||--1----1-1-1-1-1---1-1---1-1--|--1----1-1-1-1-1---1---1-1-1-1--|
||--1----1-1-1-1-1---1-1---1-1--|--1----1-1-1-1-1---1---1-1-1-1--|
    .    . . . . .   . .   . .     .    . . . . .   .   . . . .

|------------------------------|----------------------------------||     |-----|
|------------------------------|----------------------------------||     |-----|
|------------------------------|----------------------------------||     |-----|
|------------------------------|----------------------------------||     |-----|
|--1----1-1-1-1-1---1-1---1-1--|--1----1-1-1-1---6h9p6h9p5h8p5h8--||     |--1--|
|--1----1-1-1-1-1---1-1---1-1--|--1----1-1-1-1--------------------||2x   |--1--|
   .    . . . . .   . .   . .     .    . . . .                              .





Comments


Popular We Butter The Bread With Butter tabs & chords
Alle Meine Entchen 1 Bass Tabs
Der Kleine Vampir Bass Tabs
Superfhn Bananendate Bass Tabs
Der Kleine Vampir Chords
Alle Meine Entchen 1 Tabs
Backe Backe Kuchen Tabs
Hanschen Klein 1 Tabs
Schlaf Kindlein Schlaf Tabs
Superfohn Bananendate Tabs
World Of Warcraft Tabs


Song lyrics



↑ Back to top | Tablatures and chords are parodies/interpretations of the original songs. You may use it for private study, scholarship, research or language learning purposes only
© 2014 AZChords.com Contact us | Privacy policy | DMCA | Add/correct tabs | Request tabs | Top 50 tabs