» » »

We Butter The Bread With Butter, Der Kleine Vampir Bass tabs (ver.1)

Artists:  A B C D E F G H I J K L M N O P Q R S T U V W X Y Z # 

Der Kleine Vampir Bass tabs (ver.1)

We Butter The Bread With Butter Tabs
 Rating:
4/5 (4 votes)
Der Kleine Vampir lessons Tabs too difficult? Try these video lessons and learn fast
1
                Hey guys, noticed that there aren't any tabs for this song anywhere, so I started to tab 
out the song for the bass.
I'm about 98% sure that this is right, it switched between following the Bass and the 
Synth that the run to amplify the bass sound.

It's heaps easy, and I'll continue to add to this and correct any mistakes, this is just 
I also have the chords for guitar if you want, just email and I'll send them!


Standard Tuning

Count as 1 and 2 and 3 and 4 and, or a slow 1 2 3 4

Bass comes in at about 0:18.

Piano intro.

G|--------||--------||--------||--------|
D|--------||--------||--------||--------|
A|--------||--------||--------||-------6|
E|--------||--------||4-4-4-4-||04-6-7--|


G|--------||--------||--------||--------|
D|--------||--------||--------||--------|
A|-------0||4-4-4040||--------||-------6|
E|0-0-0-0-||--------||4-4-4-4-||04-6-7--|


G|--------||--------||--------||--------|
D|2-2-2-20||--------||--------||--------|
A|--------||4-4-4040||--------||-------6|
E|--------||--------||4-4-4-4-||04-6-7--|


G|--------||--------||--------||--------|
D|--------||--------||--------||--------|
A|-------0||4-4-4040||--------||-------6|
E|0-0-0-0-||--------||4-4-4-4-||04-6-7--|


G|--------||3-3-3-30||--------||--------|
D|2-2-2-20||--------||--------||--------|
A|--------||--------||--------||-------6|
E|--------||--------||4-4-4-4-||04-6-7--|

    "Hey boys, Hey girls .. "

G|--------||--------||--------||--------|
D|2-2-2-2-||--------||--------||--------|
A|--------||4-4-4-4-||--------||-------6|
E|--------||--------||4-4-4-4-||04-6-7--|

G|--------||--------||--------||--------|
D|--------||--------||--------||--------|
A|-------0||4-4-4040||--------||-------6|
E|0-0-0-0-||--------||4-4-4-4-||04-6-7--|


G|--------||--------||--------||--------|
D|--------||--------||--------||--------|
A|--------||--------||--------||-------6|
E|--------||----0404||04-4-4-4||04-6-7--|

G|--------||--------||--------||--------|
D|--------||--------||--------||--------|
A|-------0||4-4-4040||--------||-------6|
E|0-0-0-0-||--------||4-4-4-4-||04-6-7--|


G|0-0-0-0-||--------||--------||--------|
D|--------||2-2-2-2-||--------||--------|
A|--------||--------||--------||-------6|
E|--------||--------||4-4-4-4-||04-6-7--|



G|--------||--------||--------||--------|
D|--------||--------||--------||--------|
A|-------0||4-4-4040||--------||-------6|
E|0-0-0-0-||--------||4-4-4-4-||04-6-7--|

It's pretty much that throughout the whole song. I haven't added all the fills to it, 
but basically if you hammer between that
note and the open string that note's on you can get away with it.
Eg.

E|---404040|
            
Submit corrections

comments powered by Disqus
↑ Back to top | We Butter The Bread With Butter Bass for Der Kleine Vampir. Lyrics for acoustic guitar and electric guitar. 1 Tablatures and chords are parodies/interpretations of the original songs. You may use it for private study, scholarship, research or language learning purposes only