» » »

We Butter The Bread With Butter, Backe Backe Kuchen Tabs (ver.1)

Artists:  A B C D E F G H I J K L M N O P Q R S T U V W X Y Z # 

Backe Backe Kuchen Tabs (ver.1)

We Butter The Bread With Butter Tabs
 Rating:
4/5 (4 votes)
Backe Backe Kuchen lessons Tabs too difficult? Try these video lessons and learn fast
1
                Tuning: Drop C
Difficulty: Intermediate

0:00-0:27
|-----------------------------------------|
|-----------------------------------------|
|-----------------------------------------|This is repeated three times and it
|-------------8-7-5-----------------------|is tremolo picked.
|0--5-4-8-5---------8-7-5---5-7-8---4-5-7-|
|0----------8-------------8-------7-------|

0:28-0:40                                                0:41-0:51
|----------------------------------------------------|   |---------|
|----------------------------------------------------|   |---------|
|----------------------------------------------------|x2 |---------|Let ring.
|---------------12-10-8-----------------------7-8-10-|   |-0-------|
|0--8-7-12-8------------12-10-8-8--8-10-12-7---------|   |-8-------|
|0-----------12-----------------8----------7---------|   |-0-------|

BreakDown
0:51-1:54
|---------------|
|---------------|
|---------------|
|---------------|
|2-2-3-3-2--0-0-|
|2-2-3-3-2--0-0-|

End
1:56-2:09                                                             2:10-2:14
|-----------------------------------------------------------------|   |--|
|-----------------------------------------------------------------|   |--|
|-----------------------------------------------------------------|   |--|Let
|--------------0807050705030------------------875753(Tremolo Pick)|x2 |--|Ring
|---------00-0---------------------------00-0---------------------|   |0-|
|00000000-00-0------------------00000000-00-0---------------------|   |0-|
            
Submit corrections

comments powered by Disqus
↑ Back to top | We Butter The Bread With Butter Tabs for Backe Backe Kuchen. Lyrics for acoustic guitar and electric guitar. 1 Tablatures and chords are parodies/interpretations of the original songs. You may use it for private study, scholarship, research or language learning purposes only