» » »

Main In The Green Shirt Bass tabs (ver.1)

Artists:  A B C D E F G H I J K L M N O P Q R S T U V W X Y Z # 

Main In The Green Shirt Bass tabs (ver.1)

Weather Report
Rating:
0/5 (0 votes)

Hard to play? Try these video lessons and learn fast.
                G ---------------3/3  3-3-----------  
D -------3-5-3-5----  ----5---------      
A -----5------------  --------------  
E --6---------------  ------3-4-5-6- 

G -------------3/3  -15-12-------12------------------
D -----3-5-3-5----  -------15-12----15-12----15-12---
A ---5------------  ----------------------15-------15
E -6--------------  ---------------------------------       

                               (8va)
            
Hard to play? Try these video lessons and learn fast. | Correct




comments powered by Disqus
↑ Back to top | Tablatures and chords are parodies/interpretations of the original songs. You may use it for private study, scholarship, research or language learning purposes only