>
 >
Chiken

Chiken Bass Tabs

Weather Report - Chiken chords, tabs, tablatures, lyrics

Guitar lessons | Add/correct | Request | Top 50 tabs Artists:  A B C D E F G H I J K L M N O P Q R S T U V W X Y Z 0-9

Chiken Bass Tabs – Weather Report

CD, Sheet music, Poster

Do you like Chiken? Share with your friends now
Bass Tabs
here is the ultimate bas tab ever... and it is 100%... you'll have to listen the rytme.. 
is tab after all.. but when you got it... it is so much fun to play... sorry about this 
but my english stinks.. im a 17 old danish boy.. so.......................... sorry.........................


intro
G|-3h2h3---0-----------------6----------------3s10-9---------------14-17----|
D|-----------3-----0-3-4---6---6-3-4----1-0-----------------10h12-----------|
A|-------------1-1-------------------1---------------10h12------------------|
E|--------------------------------------------------------------------------|

G|-6h5h6------------------5s10-14-12-10--------------------6h5h6--6-8-11----|
D|---------8-6-----3-6-7----------------10-7-8h7h8-------4------------------|
A|-------------4-4-----------------------------------4-6--------------------|
E|--------------------------------------------------------------------------|

G|-10---10---10---10---10---10------10---10---10---10---10------------------|
D|--------------------------------------------------------------1-0-----1---|
A|----8----8----8----8----8----8--8----8----8----8----8-----8-------3-1---1-|
E|--------------------------------------------------------------------------|

"main" riff thing: play this x2
G|-----------------3------------------0-3-----------------------------------|
D|-----0-0-1-1-3s5--------0-0-1-1-3-0---------------------------------------|
A|-1-1----------------1-1---------------------------------------------------|
E|--------------------------------------------------------------------------|

main +
G|-------------------------------------0-3-------------------3--------------|
D|-----0-1-3-0-3-----------0-0-1-1-3-0-----------0-0-1-1-3s5----------------|
A|-1-1---------------0-1-1-------------------1-1----------------------------|
E|---------------1-1--------------------------------------------------------|

G|-------------------------------------------------------5-8----------------|
D|-----------------3--------5-6-8-5-8----------5-5-6-6-8--------------------|
A|-1-1-3-3-3-5-5-5---5-6--6---------------3-6-6-----------------------------|
E|------------------------------------6-6-----------------------------------|

G|--------------------------------------------------------------------------|
D|-----4-5-7-4-7-----0-----------------5-5-5--------------------------------|
A|-5-5-----------0-0-------1-1-1-5-5-5--------3-3-----------0-0-1-2---------|
E|---------------------3-3-----------------------0-0-1-1-3------------------|

G|---------------2-5------------------2-5---3-1------------3----------------|
D|-----1-1-2-2-5----------1-1-2-2-5-------------1-3-------------------------|
A|-3-3----------------3-3-----------5---------------4-1---------------------|
E|------------------------------------------------------4-------------------|

there is more... a break and a solo.. i can play it, but it will take to much time to 
on tab so.... but if you really need it.. then call out my name.. TurkeyBoy

| h  hammer-on
| s  slide





Comments


Popular Weather Report tabs & chords
A Remark You Made 1 Bass Tabs
Barbary Coast Bass Tabs
Birdland Bass Tabs
Gibraltar Bass Tabs
Main In The Green Shirt Bass Tabs
River People Bass Tabs
Teen Town Bass Tabs
Teen Town 1 Bass Tabs
Birdland (Intro) Tabs
Birdland Intro 1 Tabs


Song lyrics



↑ Back to top | Tablatures and chords are parodies/interpretations of the original songs. You may use it for private study, scholarship, research or language learning purposes only
© 2014 AZChords.com Contact us | Privacy policy | DMCA | Add/correct tabs | Request tabs | Top 50 tabs