>
 >
A Remark You Made

A Remark You Made Bass Tabs

Weather Report - A Remark You Made chords, tabs, tablatures, lyrics

Guitar lessons | Add/correct | Request | Top 50 tabs Artists:  A B C D E F G H I J K L M N O P Q R S T U V W X Y Z 0-9

A Remark You Made Bass Tabs – Weather Report

CD, Sheet music, Poster

Do you like A Remark You Made? Share with your friends now
Bass TabsBass Tabs v2
4 bar rest

g -------------------20--17/19--15/17--15--------------|
d -----------------------------------------------------|
a 6-----61---------------------------------11------10--|
e ----------------------------------------------10-----|

g -------------13--13-10/12--10----10/12-10----------------|
d 10--12-13-10------------------13-----------13--10/12--10-|
a ---------------------------------------------------------|
e ---------------------------------------------------------|

g ----10-----12-13--13--10/12-|
d -------13-------------------|
a 13--------------------------|
e ----------------------------|

6 bar rest - synth solo

g ------------------------------------------------|
d 8---------6-------------------------------------|
a 6-------6-4-----4-----6----6-6----6-------------|
e ------------------6-----------------6---6-6---6-|

g ------------------------------------------|
d ------------------------------------------|
a 3--5--6--6-------3---1--------------------|
e ------------3---3--------4-----4-4----4-3-|

g ------------------------15---------20--22/24-|
d 13---13-17/18--17-15--------16/17------------|
a ---------------------17----------------20/22-|
e ---------------------------------------------|

g 22---------22---19/20--19/20 15/17---------15-----------------|
d -----21/22--------------------------15/17-----13---12--10-----|
a 20---------20----------------------------------------------13-|
e -----19/20----------------------------------------------------|

g ------------------5------6-6-----------------------|
d -------------------8--------4----------------------|
a 11--10----136------62-------2-2-1------1-1---1-1---|
e -------13---------------------------------------1--|

g ----------------------------------------------1--3-|
d 1------1-1------5----------------------------------|
a -------------------3-----------3-------------------|
e ---------------------------------------------------|

g 8---7---5-------------------------------------------|
d ------------8---6-----84/5------5----------5-----5--|
a ----------------------------------------------------|
e -----------------------------3-3----3-3--------3----|

3 bar rest

g --8-7---5----------------------------------------|
d ------------8---6----6-5-------------------------|
a -----------------------------5-------------------|
e --------------------------------3--(3)/6-----6-4-|

g ------------------------------------------|
d ------------------------------------------|
a ------3-------------------------3---------|
e 3-----------4-----1-----3-----3---------4-|

g ---R-------8/10--8~~--8~--10h12-10/17-8/10-|
d ---E----------------10---------------------|
a ---S---------------------------------------|
e ---T---------------------------------------|

g 8~~---8~-10h12-10/17~~-8/10-8~~--8~-10h12-10/17------------|
d ---10--------------------------10----------------14/15--12-|
a -----------------------------------------------------------|
e -----------------------------------------------------------|

g ---------------------------------------------------------|
d -----------10--------------------------------------------|
a 10------------------11-----11/13-13----------1311-11-11--|
e ---------------------9------9/11-11----------119---9--9--|

g -----------------------------------------------------------------------------|
d -----------------------11----------------------------------------------------|
a 13---------1311-------11--------13--------------1311-------------------------|
e 11---------119---------9--------11--------------119----9---(9)/11------------|

g 12----------------1210-----------------12--------------------12---|
d ------------------------------------------------------------------|
a 13--------13------1311-----11-----(11)/13-----------------13------|
e 11--------11------119-------9------(9)/11------11------11---------|

g 10-------------------------12-------------1211-----------------------------|
d ---------------------------------------------------------------------------|
a 11-----------11----(11)/13-13--------13----------11-----------11---11------|
e 9----------9---------------11-----11----------9---------9-9----------------|

g -------------------13--------13-----10/12---10-----10/12--10----------------|
d 10-------12-13--10-----------------------------13-------------13 10/12---10-|
a ----------------------------------------------------------------------------|
e ----------------------------------------------------------------------------|

g ---10-----12-13-------13--10/12---10/12--10-----10/12--10---------------|
d ------13------------------------------------13-------------13-10/12-10--|
a 13----------------------------------------------------------------------|
e ------------------------------------------------------------------------|

g ---10-----12-13-------13--10/12---10/12--10-----10/12--10---------------|
d ------13------------------------------------13-------------13-10/12-10--|
a 13----------------------------------------------------------------------|
e ------------------------------------------------------------------------|

g ---10-------12---13----------------R---|
d -------13--------------------------E---|
a 13---------------------------------S---|
e -----------------------------------T---|





Comments


Popular Weather Report tabs & chords
Barbary Coast Bass Tabs
Birdland Bass Tabs
Chiken Bass Tabs
Gibraltar Bass Tabs
Punk Jazz Bass Tabs
River People Bass Tabs
Teen Town Bass Tabs
Teen Town 1 Bass Tabs
Birdland Tabs
Birdland (Intro) Tabs


Song lyrics



↑ Back to top | Tablatures and chords are parodies/interpretations of the original songs. You may use it for private study, scholarship, research or language learning purposes only
© 2014 AZChords.com Contact us | Privacy policy | DMCA | Add/correct tabs | Request tabs | Top 50 tabs