» » »

Weatherbox, Trippin' The Life Fantastic Tabs (ver.2)

Artists:  A B C D E F G H I J K L M N O P Q R S T U V W X Y Z # 

Trippin' The Life Fantastic Tabs (ver.2)

Weatherbox Tabs
Rating:
0/5 (0 votes)
Trippin' The Life Fantastic lessons Tabs too difficult? Try these video lessons and learn fast
                Weatherbox
"Trippin' The Life Fantastic"
American Art

Tuning: Open D (D A D F# A D)

What's up guys? I've been working hard at tabbing out complete versions
of as many songs from this album as I can. Trippin' is my third attempt
at a tab from this album and it also happens to be the band's most popular
song by far. It is an amazing creation from the mind of a genius, so
without any further delay, let's get to the tab.


Intro: (x4)
D ---------------------------------------|
A ---------------------------------------|
F#------3-----5-----3-----7-----3/5\3----|
D ------------------4-----7--------------|
A ---------------------------------------|
D ---4-----4-----------------------------|



Verse: (x2)
"I was born in a swamp..."
D ----------------------------------------------------------|
A ---------------4--4---------------------------------------|
F#------3-----5--------3--3--5--3-----3-----3/5\3--3/5\3----|
D ---------------------------------4-----4------------------|
A ----------------------------------------------------------|
D ---4-----4------------------------------------------------|



Play Intro x2
Play Verse x2



Verse Part 2: (x2)
"I was born in a swamp..."
D ------------------------------------------|
A -----------------------------------12\----|
F#------3-----5-----3--5--7--10--12---------|
D ------------------------------------------|
A ------------------------------------------|
D ---4-----4--------------------------------|



Bridge 1: (x4)
"Tripped out..."
D -----------------|
A -----------------|
F#---3~------5~----|
D ---0~------2~----|
A ---0~------2~----|
D ---0~------2~----|



Bridge 2: (x4)
"This God of your holy books..."
D -------------------------------------------------|
A -------------------------------------------------|
F#---7-(x24)-----2-(x18)----------------3-(x24)----|
D ---7-----------2-----------9-(x6)-----0----------|
A ---7-----------2-----------7----------0----------|
D ---7-----------2----------------------0----------|



Bridge 3: (x3)
"Oh to understand..."
D --------------------------------------|
A --------------------------------------|
F#---7-(x24)-----2-(x24)-----3-(x24)----|
D ---7-----------2-----------4----------|
A ---7-----------2-----------4----------|
D ---7-----------2-----------4----------|



Bridge 4: (x16)
"And I am the only thing that's controlling..."
D -----------------------------------------------------|
A ---------------12--12--12--12--12--12--12--12--12----|
F#---------------10--10--10--10--10--10--10--10--10----|
D -----------------------------------------------------|
A -----------------------------------------------------|
D ---0--0--0-------------------------------------------|
     .  .  .



Chorus: (x10)
"I have cobwebs for maps..."
D -----------------------------------------------------|
A ---------------12--12--12--12--12--12--12--12--12----|
F#---------------10--10--10--10--10--10--10--10--10----|
D ---0--0--0------0---0---0---0---0---0---0---0---0----|
A ---0--0--0-------------------------------------------|
D ---0--0--0-------------------------------------------|



Solo: (starts at 3:35)
D --------------------------------------------------------------------|
A --------------------------------------------------------------------|
F#---10/12\10---------10\8-------------10/12\10---------10\8----------|
D -------------11h12-----------------------------11h12----------------|
A --------------------------12--12----------------------------12--12--|
D --------------------------------------------------------------------|

D ----------------------------------|
A ----------------------------------|
F#----------------------------------|
D ---0--0-----0-----0--0--0-(x4)----|
A ---0--0-----0-----0--0--0---------|
D ---0--0-----0-----0--0--0---------|

D ------------------------------------------|
A ------------------------------------------|
F#---10/12\10---------10\8------------------|
D -------------11h12------------------------|
A --------------------------12--12-(x16)----|
D ------------------------------------------|

D --------------------------------------|
A ---/12--------------------------------|
F#--------10---------10-----------------|
D ------------11h12---------------------|
A -----------------------12--12 (x4)----|
D --------------------------------------|

D -----------------------------|
A -----------------------------|
F#-----------------------------|
D ---0-----0--0--0-----0--0----|
A ---0-----0--0--0-----0--0----|
D ---0-----0--0--0-----0--0----|



Outro: (Go crazy and strum fast!)
"I have cobwebs for maps..."
D -----------------------------------------------------|
A ---------------12--12--12--12--12--12--12--12--12----|
F#---------------10--10--10--10--10--10--10--10--10----|
D ---0--0--0------0---0---0---0---0---0---0---0---0----|
A ---0--0--0-------------------------------------------|
D ---0--0--0-------------------------------------------|



I am 99% positive that this is exactly how Brian plays it. The other
tab for this song is somewhat close but it's in drop D tuning as
opposed to the open D that Brian frequently uses. Anyway, rock hard
with this one and please rate, correct, and comment!


Key:
h - Hammer on
p - Pull off
/ - Slide up
\ - Slide Down
~ - Let ring
. - Palm mute
            

comments powered by Disqus
↑ Back to top | Weatherbox Tabs for Trippin' The Life Fantastic. Lyrics for acoustic guitar and electric guitar. Tablatures and chords are parodies/interpretations of the original songs. You may use it for private study, scholarship, research or language learning purposes only