>
 >
The Drugs

The Drugs Guitar Tabs

Weatherbox - The Drugs chords, tabs, tablatures, lyrics

Guitar lessons | Add/correct | Request | Top 50 tabs Artists:  A B C D E F G H I J K L M N O P Q R S T U V W X Y Z 0-9

The Drugs Guitar Tabs – Weatherbox

CD, Sheet music, Poster

Do you like The Drugs? Share with your friends now
Tabs
Tabs a little confusing to read, I'll admit, but I promise it's at least 99% correct.

Tuned FACGCE 

Rhythm- 

Intro/Chorus chords:
|-0--0-|
|-0--2-|
|-0--0-|
|-0--0-|
|-0--x-|
|-0--2-|

Verse Chords:
|-0-0-|
|-0-0-|
|-0-0-|
|-0-0-|
|-x-x-|
|-7-4-|

Post-Chorus:
|-0--0--0--0-|--0--0--0--0-|
|-0--0--0--0-|--0--0--0--0-|
|-0--0--0--0-|--0--0--0--0-|
|-0--0--0--0-|--0--0--0--0-|
|-x--x--x--x-|--x--x--x--x-|
|-7-11-12--4-|-14-11-12--4-|

Bridge:
|--0--0--0--0-|
|--0--0--0--0-|
|--0--0--0--0-|
|--0--0--0--0-|
|--x--x--x--x-|
|-14-11-12--4-|

End on:
|-0-|
|-0-|
|-0-|
|-0-|
|-0-|
|-0-|


Lead-

Intro:
|0--------|-----------|
|----0----|-----0---2-|
|--------0|-0---------|
|---------|-----------|
|---------|-----------|
|---------|-----------|

Verse 1 (come in at "when the music fades"):
|-------------------|------------------|
|-------------------|-----0------------|
|-2-0----2-0-5-7----|-2-0---2-0-5-7----|
|-----0-----------7-|----------------7-|
|-------------------|------------------|
|-------------------|------------------|

Chorus 1 (palm-mute it all):

|-0-----|------0-----|
|---0---|0---0---0---|
|-----0-|--0-------0-|
|-------|------------|
|-------|------------|
|-------|------------|

Post-Chorus:
|------|------------|
|0-----|-0----------|
|------|----4--2--0-|
|------|------------|
|------|------------|
|------|------------|

Verse 2:
P.M.
|0---------|-----------|-0-----|
|----0-----|-----0---2-|---0---|
|--------0-|-0---------|-----0-|
|----------|-----------|-------|
|----------|-----------|-------|
|----------|-----------|-------|

Chorus 2:

P.M.
|-0-----|-----0-----|-0-------|-----------|
|---0---|---0---0---|----0----|-----0---2-|
|-----0-|-0-------0-|-------0-|-0---------|
|-------|-----------|---------|-----------|
|-------|-----------|---------|-----------|
|-------|-----------|---------|-----------|

Final Chorus:

|0---------|-----------|--0----|------|-0----|------|
|----0-----|-----0---2-|-----0-|-0----|----0-|----0-|
|--------0-|-0---------|-------|----0-|------|-0----|
|----------|-----------|-------|------|------|------|
|----------|-----------|-------|------|------|------|
|----------|-----------|-------|------|------|------|

End on:

|---|
|---|
|-0-|
|---|
|---|
|---|





Comments


Popular Weatherbox tabs & chords
Armed To The Teeth Tabs
Ask My Flashlight Tabs
Contactus The Little Green Man Tabs
Drop The Mike Tabs
Drop The Mike 1 Tabs
Heavy Map Tabs
King Friend Tabs
That Mann Tabs
The Dreams Tabs
The Drugs Intro Tabs


Song lyrics



↑ Back to top | Tablatures and chords are parodies/interpretations of the original songs. You may use it for private study, scholarship, research or language learning purposes only
© 2014 AZChords.com Contact us | Privacy policy | DMCA | Add/correct tabs | Request tabs | Top 50 tabs