» » »

Weatherbox, Moments Before The Smashing Of Future Ryan Tabs (ver.1)

Artists:  A B C D E F G H I J K L M N O P Q R S T U V W X Y Z # 

Moments Before The Smashing Of Future Ryan Tabs (ver.1)

Weatherbox Tabs
 Rating:
4/5 (4 votes)
Moments Before The Smashing Of Future Ryan lessons Tabs too difficult? Try these video lessons and learn fast
1
                Weatherbox
"Moments Before the Smashing of Future Ryan"
American Art

Tuning: Open D (D A D F# A D)

This is my second tab from Weatherbox's debut LP American Art. I also
going to try to tab out as many songs as possible from this record
because of how much I love this band/album. Here we go!

Intro: (x8)

D -------------------------------------------------------|
A ---------------------2/4\2p0---------------------------|
F#------3-----3/5\3p0-----------2p0----------------------|
D -------------------------------------------------------|
A -------------------------------------------------------|
D ---4-----4---------------------------------------------|

Intro 2:
"Because it's you..."
D -------------------------------------------------------|
A -------------------------------------------------------|
F#---3--3----3--3------3--3---3--3------3--3-------------|
D ---0--0----0--0------0--0---0--0------0--0-------------|
A ---0--0----0--0------0--0---0--0------0--0-------------|
D ---0--0----0--0------0--0---0--0------0--0-------------|

Play Intro x4
Play Intro 2 x1

Intro 3:
"For days..."
D --------------------------------------------------------------------|
A --------------------------------------------------------------------|
F#------3--3-----3---------3--3-----3--3------3--3--3--3--3--3--3--3--|
D ------0--0-----0---------0--0-----0--0------0--0--0--0--0--0--0--0--|
A ---0--------0---------0--------0------------0--0--0--0--0--0--0--0--|
D ---0--------0---------0--------0------------0--0--0--0--0--0--0--0--|

Chorus: (x2)
"Roof to bench to leathery ground..."
D -----------------------------------------------------------------------|
A -----------------------------------------------------------------------|
F#---3--3--(x4)--7--7--(x3)--10--10------3--3--(x4)--7--7--(x3)--15--15--|
D ---0--0--------0--0--------0---0-------0--0--------0--0--------0---0---|
A ---0--0--------0--0--------0---0-------0--0--------0--0--------0---0---|
D -----------------------------------------------------------------------|

Bridge: (x4)
"And I kick dirt..."
D -------------------------------------------------------|
A -------------------------------------------------------|
F#-------------------------------------------------------|
D ------2---------------------2--------------------------|
A ---------4--2-----2------------4--2-----2--------------|
D ---0-----------2---------0-----------2-----------------|

Bridge 2:
                     "Away and under..."
D --------------------------------------------------------------|
A --------------------------------------------------------------|
F#--------------------3--3---3--3--(x4)------3--3---3--3--(x4)--|
D ---2-2-2-2-(x8)-----0--0---0--0------------0--0---0--0--------|
A ---0-0-0-0----------0--0---0--0------------0--0---0--0--------|
D ---0-0-0-0---------------------------------0--0---0--0--------|
 PM  . . . .

Play Bridge
Play just the "Away and under" part of Bridge 2

Outro 1:
"It's you in my lungs..."
D ------------------------------------------------------|
A ------------------------------------------------------|
F#---3--3---3--3-----3--3---3--3-----3--3---------------|
D ---0--0---0--0-----0--0---0--0-----0--0---------------|
A ---0--0---0--0-----0--0---0--0-----0--0---------------|
D ---0--0---0--0-----0--0---0--0-----0--0---------------|

Outro 2: (x2)
"Roof to bench to leathery ground..."
D ----------------------------------------------------------------------|
A ----------------------------------------------------------------------|
F#---3--3--(x4)--7--7--(x3)--10--10-----3--3--(x4)--7--7--(x3)--15--15--|
D ---0--0--------0--0--------0---0------0--0--------0--0--------0---0---|
A ---0--0--------0--0--------0---0------0--0--------0--0--------0---0---|
D ----------------------------------------------------------------------|


That's a somewhat detailed outline of all the riffs. The rhythm is
hard to capture in a tab but if you listen to the song you'll get it.
Please comment, correct, and rate!

Key:
/ - Slide up
\ - Slide down
p - Pull off
. - Palm mute
            
Submit corrections

comments powered by Disqus
↑ Back to top | Weatherbox Tabs for Moments Before The Smashing Of Future Ryan. Lyrics for acoustic guitar and electric guitar. 1 Tablatures and chords are parodies/interpretations of the original songs. You may use it for private study, scholarship, research or language learning purposes only