» » »

Weatherbox, Drop The Mike Tabs (ver.2)

Artists:  A B C D E F G H I J K L M N O P Q R S T U V W X Y Z # 

Drop The Mike Tabs (ver.2)

Weatherbox Tabs
 Rating:
4/5 (6 votes)
Drop The Mike lessons Tabs too difficult? Try these video lessons and learn fast
1
                Main Riff: Intro and verse 1
E---------------------------------------------------------------------------|
B---------------------------------------------------------------------------|
G-------2-----------4------------7-----9--11---------------------4----------|
D---------------------------------------------------------------------------|
A---------------------------------------------------------------------------|
D-------4-----------5------------9-----11-12---------------------5----------|
With my feet on the grass and my heart beating just a little too fast...
Do this same thing for every verse...

Chorus: strum same chords listen for strumming its fairly simple...
E----------------------------------------------------------------------------|
B----------------------------------------------------------------------------|
G-------2-----------4------------7-----9--11---------------------4-----------|
D----------------------------------------------------------------------------|
A----------------------------------------------------------------------------|
D-------4-----------5------------9-----11-12---------------------5-----------|
And he kicked me       off  my  CHAIR----------------------------------------|
And he tied feathers    In  my  HAIR-----------------------------------------|

Then back the Verse and main riff (same as above)

Then back to Chorus (This time plays thru 4Xs)

Break down/Rap:
Verse 2:
E---------------------------------------------------------------------------|
B---------------------------------------------------------------------------|
G---22-22-22-22-22-2--44-44-44-44-44-4--77-77-77-77-77-7--66-66-66-66-66-6--|
D---------------------------------------------------------------------------|
A---------------------------------------------------------------------------|
D---44-44-44-44-44-4--55-55-55-55-55-5--99-99-99-99-99-9--77-77-77-77-77-7--|
PM  **    **    **    **    **    **    **    **    **    **    **    **
Do this thru the whole rap...

Then do this for the "NO IT'S NOT BAD" Figure out the strumming... Its easy
 Verse 2:
E---------------------------------------------------------------------------|
B---------------------------------------------------------------------------|
G-------2-----------4--------------7---6----4-------------------------------|
D---------------------------------------------------------------------------|
A---------------------------------------------------------------------------|
D-------4-----------5--------------9---7----5-------------------------------|
       No          It's Not No its not that bad----(X2)

Back to Chourus:

Chorus: strum same chords listen for strumming its fairly simple...
E----------------------------------------------------------------------------|
B----------------------------------------------------------------------------|
G-------2-----------4------------7-----9--11---------------------4-----------|
D----------------------------------------------------------------------------|
A----------------------------------------------------------------------------|
D-------4-----------5------------9-----11-12---------------------5-----------|
And he kicked me       off  my  CHAIR----------------------------------------|
And he tied feathers    In  my  HAIR-----------------------------------------|

Then end with same main Riff as the intro:
Chorus: strum same chords listen for strumming its fairly simple...
E---------------------------------------------------------------------------|
B---------------------------------------------------------------------------|
G-------2-----------4------------7-----9--11---------------------4----------|
D---------------------------------------------------------------------------|
A---------------------------------------------------------------------------|
D-------4-----------5------------9-----11-12---------------------5----------|

The very last verse ends a little different:

E---------------------------------------------------------------------------|
B---------------------------------------------------------------------------|
G-------2-----------4------------7---9----11--------------------------------|
D----------------------------------------------------------------7----------|
A---------------------------------------------------------------------------|
D-------4-----------5------------9---11---12---------------------5----------|
          ...of my hands cuz its mor ning now    and i'm free to dance
                                                                  (let ring)

Not a hundred percent right but this is how my band covers it and it sounds pretty darn close...
            
Submit corrections

comments powered by Disqus
↑ Back to top | Weatherbox Tabs for Drop The Mike. Lyrics for acoustic guitar and electric guitar. 1 Tablatures and chords are parodies/interpretations of the original songs. You may use it for private study, scholarship, research or language learning purposes only