» » »

Drop The Mike Tabs (ver.1)

Artists:  A B C D E F G H I J K L M N O P Q R S T U V W X Y Z # 

Drop The Mike Tabs (ver.1)

Weatherbox
Rating:
0/5 (0 votes)

Hard to play? Try these video lessons and learn fast.
                Weatherbox

Tuning: DADF#AD



Intro/Verse:
D |-------------------------------------------------------------------------|
A |-------------------------------------------------------------------------|
F#|-----3-----------5------------8-----10-----12-----------------5----------|
D |-------------------------------------------------------------------------|
A |-------------------------------------------------------------------------|
D |-----4-----------5------------9-----11-----12-----------------5----------|

Chorus (Strum these chords):
D |-------------------------------------------------------------------------|
A |-------------------------------------------------------------------------|
F#|-----3-----------5------------8-----10-----12-----------------5----------|
D |-------------------------------------------------------------------------|
A |-------------------------------------------------------------------------|
D |-----4-----------5------------9-----11-----12-----------------5----------|

Break-down Riff:
D |-------------------------------------------------------------------------|
B |-------------------------------------------------------------------------|
F#|-33-33-33-33-33-3--55-55-55-55-55-5--88-88-88-88-88-8--77-77-77-77-77-7--|
D |-------------------------------------------------------------------------|
A |-------------------------------------------------------------------------|
D |-44-44-44-44-44-4--55-55-55-55-55-5--99-99-99-99-99-9--77-77-77-77-77-7--|
PM  ..    ..    ..    ..    ..    ..    ..    ..    ..    ..    ..    ..

Verse (No, it's not that baaaaaad):
D |-------------------------------------------------------------------------|
A |-------------------------------------------------------------------------|
F#|-----3-----------5------------8-----7------5-----------------------------|
D |-------------------------------------------------------------------------|
A |-------------------------------------------------------------------------|
D |-----4-----------5------------9-----7------5-----------------------------|

Chorus (Strum these chords):
D |-------------------------------------------------------------------------|
A |-------------------------------------------------------------------------|
F#|-----3-----------5------------8-----10-----12-----------------5----------|
D |-------------------------------------------------------------------------|
A |-------------------------------------------------------------------------|
D |-----4-----------5------------9-----11-----12-----------------5----------|

Verse:
D |-------------------------------------------------------------------------|
A |-------------------------------------------------------------------------|
F#|-----3-----------5------------8-----10-----12----------------------------|
D |--------------------------------------------------------------7----------|
A |-------------------------------------------------------------------------|
D |-----4-----------5------------9-----11-----12-----------------5----------|
            
Hard to play? Try these video lessons and learn fast. | Correct




comments powered by Disqus
↑ Back to top | Tablatures and chords are parodies/interpretations of the original songs. You may use it for private study, scholarship, research or language learning purposes only