» » »

Weatherbox, Contactus The Little Green Man Tabs (ver.1)

Artists:  A B C D E F G H I J K L M N O P Q R S T U V W X Y Z # 

Contactus The Little Green Man Tabs (ver.1)

Weatherbox Tabs
Rating:
0/5 (0 votes)
Contactus The Little Green Man lessons Tabs too difficult? Try these video lessons and learn fast
                Weatherbox
"Contactus, The Little Green Man"
The Cosmic Drama

Tuning: D A D Gb A D


This is the most excited I've ever been to tab a Weatherbox song since
"Contactus" is tied with "Heavy Map" as my absolute favorite song ever.
The key of the song is based on the Open D tuning so make use of it!


Intro:

D --0---0---0----|
A --0---0---0----|
Gb--10--12--10---|
D --0---0---0----|
A --0---0---0----|
D --0---0---0----|


Verse: (x2)
"Now not currently hating myself..."

D --0--0--0--0--0--0----0--0--0-----0--0--0----|
A --0--0--0--0--0--0----0--0--0-----0--0--0----|
Gb--3--3--3--3--3--3----10-10-10----7--7--7----|
D --0--0--0--0--0--0----0--0--0-----0--0--0----|
A --0--0--0--0--0--0----0--0--0-----0--0--0----|
D --0--0--0--0--0--0----0--0--0-----0--0--0----|

Verse 2: (x1)
"Not currently burning in hell..."

D --0--0--0--0--0--0----0--0--0--0--0--0----0--0--0--0--0--0------|
A --0--0--0--0--0--0----0--0--0--0--0--0----0--0--0--0--0--0------|
Gb--3--3--3--3--3--3----7--7--7--7--7--7----10-10-10-10-10-10-----|
D --0--0--0--0--0--0----0--0--0--0--0--0----0--0--0--0--0--0------|
A --0--0--0--0--0--0----0--0--0--0--0--0----0--0--0--0--0--0------|
D --0--0--0--0--0--0----0--0--0--0--0--0----0--0--0--0--0--0------|


Repeat Verse (x1)


Solo: (x1)

D --0---0-----0---0---0-----0--0--0----0--0--0----|
A --0---0-----0---0---0-----0--0--0----0--0--0----|
Gb--12--10----10--12--10----7--8--8----7--8--8----|
D --0---0-----0---0---0-----0--0--0----0--0--0----|
A --0---0-----0---0---0-----0--0--0----0--0--0----|
D --0---0-----0---0---0-----0--0--0----0--0--0----|

D --0---0---0-----0---0---0-----0--0--0----0--0--0----|
A --0---0---0-----0---0---0-----0--0--0----0--0--0----|
Gb--10--12--10----10--12--10----7--8--8----7--8--8----|
D --0---0---0-----0---0---0-----0--0--0----0--0--0----|
A --0---0---0-----0---0---0-----0--0--0----0--0--0----|
D --0---0---0-----0---0---0-----0--0--0----0--0--0----|


Repeat Verse (x1)


Chorus 1: (x4)
"All our parts are..."

D --0-0-0-0----0-0-0-0----0--0--0--0-----0-0-0-0----|
A --0-0-0-0----0-0-0-0----0--0--0--0-----0-0-0-0----|
Gb--2-2-2-2----3-3-3-3----10-10-10-10----7-7-7-7----|
D --0-0-0-0----0-0-0-0----0--0--0--0-----0-0-0-0----|
A --0-0-0-0----0-0-0-0----0--0--0--0-----0-0-0-0----|
D --0-0-0-0----0-0-0-0----0--0--0--0-----0-0-0-0----|


Chorus 2: (x4)
"Making good make good..."

D --0---0-----0----0-----0--0--0--0----|
A --0---0-----0----0-----0--0--0--0----|
Gb--10--10----7----10----3--3--3--3----|
D --0---0-----0----0-----0--0--0--0----|
A --0---0-----0----0-----0--0--0--0----|
D --0---0-----0----0-----0--0--0--0----|


Play Chorus 1 (x2)

Play Chorus 2 (x2)


Bridge:
"Make me good..."

D --0---0---0---0---0---0---0---0----|
A --0---0---0---0---0---0---0---0----|
Gb--10--10--10--10--10--10--10--10---|
D --0---0---0---0---0---0---0---0----|
A --0---0---0---0---0---0---0---0----|
D --0---0---0---0---0---0---0---0----|


Bridge 2: (x6)
"Little green man!..."

D ---0---0---0-----0---0---0------0--0--0----|
A ---0---0---0-----0---0---0------0--0--0----|
Gb--10--12--10-----10--12--10-----7--8--8----|
D ---0---0---0-----0---0---0------0--0--0----|
A ---0---0---0-----0---0---0------0--0--0----|
D ---0---0---0-----0---0---0------0--0--0----|


Outro:
"Making good make good..."

D --0~----0~----0~----0~----|
A --0~----0~----0~----0~----|
Gb--10~---3~----10~---3~----|
D --0~----0~----0~----0~----|
A --0~----0~----0~----0~----|
D --0~----0~----0~----0~----|

Outro (cont.):
"All our parts are..."

D --0~----0~----0~----0~----|
A --0~----0~----0~----0~----|
Gb--2~----10~---2~----10~---|
D --0~----0~----0~----0~----|
A --0~----0~----0~----0~----|
D --0~----0~----0~----0~----|


That's all of the parts to this very awesome and fun song. Once you learn
them they'll come naturally since you're following the vocal melody with
the notes on the G string. Please rate, comment, and correct!


Key:

~ - Let ring
            

comments powered by Disqus
↑ Back to top | Weatherbox Tabs for Contactus The Little Green Man. Lyrics for acoustic guitar and electric guitar. Tablatures and chords are parodies/interpretations of the original songs. You may use it for private study, scholarship, research or language learning purposes only